» » »

Matt Nathanson, All We Are Tabs (ver.2)

Artists:  A B C D E F G H I J K L M N O P Q R S T U V W X Y Z # 

All We Are Tabs (ver.2)

Matt Nathanson Tabs
Rating:
5/5 (2 votes)
All We Are lessons Tabs too difficult? Try these video lessons and learn fast
                (Intro)
My first tab!  Just a little intro I put together.  It's really pretty.  There are two 
to do this.  Here's the easier one:

Capo 2nd Fret

e|----2---0-----------------------------|
B|-------------3------3-3-----3-3-------|
G|------------------0------2------------|
D|--------------------------------0-----|
A|--------------------------------------|
E|--------------------------------------|  That's it!  You just repeat it over and over!

Here's the slightly harder, but prettier version.

e|--2--0--------------------------------|
B|--3-----3--3---3-3-3---3-3---3--------|
G|--2--------0-------2------------------|
D|--0--------------------------0--------|
A|--------------------------------------|
E|--------------------------------------| Like the one above, you just repeat this continually.

Have fun!  :)
            
Submit corrections

comments powered by Disqus
↑ Back to top | Matt Nathanson Tabs for All We Are. Lyrics for acoustic guitar and electric guitar. Tablatures and chords are parodies/interpretations of the original songs. You may use it for private study, scholarship, research or language learning purposes only