» » »

Matt Nathanson, All We Are Tabs (ver.1)

Artists:  A B C D E F G H I J K L M N O P Q R S T U V W X Y Z # 

All We Are Tabs (ver.1)

Matt Nathanson Tabs
Rating:
5/5 (7 votes)
All We Are lessons Tabs too difficult? Try these video lessons and learn fast
                Tuning: Standard

Capo 2nd fret
All notes relative to capo

Intro
|----------|--------------------------------|
|--7--5----|------------------------7--5----|
|-------7--|--7--7-7--7--7-7-------------7--|
|--5-------|--5-------7------7-7-7--5-------|
|----------|-----------------5-5-5----------|
|----------|--------------------------------|

|--------------------------------|
|--------------------------------|
|--7--7-7--7--7-7----7-7----7-7--|
|--5-------7-------7------7------|
|------------------5------5------|
|--------------------------------|


Verse
|--------------------------------|      
|--------------------------------|      
|--7--7-7--7--7-7----7-7----7-7--|      
|--5-------7-------7------7------|  x2  
|------------------5------5------|  
|--------------------------------|    
    
|--------------------------------|-------------------------------------|
|--------------------------------|-------------------------------------|
|--7--7-7--7--7-7----7-7----7-7--|--7--7-7--7--7-7--7--7-7--6h7-7---7--|
|--5-------7---------------------|--5-------5-------7-------------7----|
|--------------------------------|-------------------------------------|
|------------------7------7------|-------------------------------------|

Chorus
|---------------------------|      
|---------------------------|      
|----7-7---7-7---7-7---7-7--|      
|---------------------------|  x2  
|--------------5-----5------| 
|--3-----5------------------|   
     
|---------------------------|---------------------|
|---------------------------|---------------------|
|----7-7---7-7---7-7---7-7--|----7-7---7-7---7-7--|
|---------------------------|---------------------|
|---------------------------|---------------------|
|--3-----5-----7-----7------|--3-----3-----5------|

Break1
|------------|--------------------------------|
|--5/7--5----|------------------------7--5----|
|---------7--|--7--7-7--7--7-7-------------7--|
|------------|--5-------7------7-7-7--5-------|
|------------|-----------------5-5-5----------|
|------------|--------------------------------|

|--------------------------------|
|--------------------------------|
|--7--7-7--7--7-7----7-7----7-7--|
|--5-------7-------7------7------|
|------------------5------5------|
|--------------------------------|


Bridge
|----------------|-----------------|      |----------------|-------------|
|-----3------3---|-----3-------3---|      |-----3------3---|-----3---3---|
|-----2------0---|-----x-------x---|      |-----2------0---|-----x---x---|
|-----0------0---|-----4-------2---|  x2  |-----0------0---|-----4---2---|
|-----x------x---|--2--2---0---0---|      |-----x------x---|--2--2---0---|
|--2--2---3--3---|-----------------|      |--2--2---3--3---|-------------|

Break2
|----------|--------------------------------|
|--7--5----|------------------------7--5----|
|-------7--|--7--7-7--7--7-7-------------7--|
|----------|--5-------7------7-7-7--5-------|
|----------|-----------------5-5-5----------|
|----------|--------------------------------|

|---------------------------------|
|---------------------------------|
|--7--7-7------7-7----7-7----7-7--|
|--5-------5/7------7------7------|
|-------------------5------5------|
|---------------------------------|

Outro
|----------|---------------------------------|-------------------------|
|--7--5----|-------------------------7--5----|-------------------------|
|-------7--|--7--7-7------7-7-------------7--|--7--7-7------7-7--7~~---|
|----------|--5-------5/7-----7-7-7--5-------|--5-------5/7------7~~---|
|----------|------------------5-5-5----------|-------------------5~~---|
|----------|---------------------------------|-------------------------|


Song Structure:

Intro

Verse:
I tasted, tasted love so sweet
And all of it was lost on me
Buttons sold like property
Sugar on my tongue

Verse:
I kept falling over
I kept looking backward
I went broke believing
That the simple should be hard

Chorus:
All we are we are
All we are we are
And every day is a start of something beautiful

Break1

Verse:
I wasted, wasted love for you
Traded out for something new
Well, it's hard to change the way you lose
If you think you never won

Chorus:
'Cause all we are we are
All we are we are
And every day is a start of something beautiful

Bridge:
And in the end the words won't matter
'Cause in the end nothing stays the same
And in the end dreams just scatter and fall like rain

Break2

Chorus:
'Cause all we are we are
All we are we are
And every day is a start of something beautiful, something real

Chorus:
All we are we are
All we are we are
And every day is a start of something beautiful, beautiful 

Outro
            
Submit corrections

comments powered by Disqus
↑ Back to top | Matt Nathanson Tabs for All We Are. Lyrics for acoustic guitar and electric guitar. Tablatures and chords are parodies/interpretations of the original songs. You may use it for private study, scholarship, research or language learning purposes only