» » »

So Damn Lucky Tabs (ver.1)

Artists:  A B C D E F G H I J K L M N O P Q R S T U V W X Y Z # 

So Damn Lucky Tabs (ver.1)

Matthews Dave
Rating:
0/5 (0 votes)

Hard to play? Try these video lessons and learn fast.
                this is an excellent song. 
i tabbed it out while watching him play on mtv.
listen to the song for timing.

intro/verse
-x-x-------x-x-
-x-x-------x-x-
-9h11------9h11
-9-9-------9h11
-9h11------0-0-
-0-0-----------


chorus
-x-----x-x-x--x-x---x-0-0-
-x-----x-x-x--x-x---8-3-1-
-2-----7-6-4--2-0---7-0-0-
-0-----0-0-0--0-2---5-4-2-
-x-----x-x-x--x-2---x-5-3-
-2-----7-5-3--2-0---7-x-x-
            
Hard to play? Try these video lessons and learn fast. | Correct




comments powered by Disqus
↑ Back to top | Tablatures and chords are parodies/interpretations of the original songs. You may use it for private study, scholarship, research or language learning purposes only