» » »

Matthews Dave, Some Devil Baritone Tuning Tabs (ver.1)

Artists:  A B C D E F G H I J K L M N O P Q R S T U V W X Y Z # 

Some Devil Baritone Tuning Tabs (ver.1)

Matthews Dave Tabs
Rating:
0/5 (0 votes)
Some Devil Baritone Tuning lessons Tabs too difficult? Try these video lessons and learn fast
                #font                                                                             #


"Some Devil" by Dave Matthews


Note: This song is played in BARITONE TUNING, with each string lowered five half-steps. Low-to-high: B-e-a-d-f#-b

Intro/Verse:

b||--------------|-------------|----(5)-------|----------------|
f#|----/9-/9\-7--|----7--7--5--|-----5---5-0--|----1--------3--|
d||----/9-/9\-7--|----7--7--6--|-----6---6-0--|----0------0----|
a||--------------|-------------|----(7)--7-0--|---2---------4--|
e||--------------|-------------|--0-----------|--3---3-/5------|
B||--0-----------|--0----------|--------------|----------------|


Chorus:

b||---------------|-------------|-------|-------------|
f#|---------------|-------------|-------|-------------|
d||---------------|-------------|-------|-------------|
a||-----12----12--|----9-----7--|----5--|----5----7---|
e||-/10-----9-----|--7----5-----|--3----|--3----5---5/|
B||---------------|-------------|-------|-------------|
            
Submit corrections

comments powered by Disqus
↑ Back to top | Matthews Dave Tabs for Some Devil Baritone Tuning. Lyrics for acoustic guitar and electric guitar. Tablatures and chords are parodies/interpretations of the original songs. You may use it for private study, scholarship, research or language learning purposes only