» » »

Matchbook Romance, Promise Bass tabs (ver.2)

Artists:  A B C D E F G H I J K L M N O P Q R S T U V W X Y Z # 

Promise Bass tabs (ver.2)

Matchbook Romance Tabs
 Rating:
4.2/5 (5 votes)
Promise lessons Tabs too difficult? Try these video lessons and learn fast
                
Intro:
G|-----|---------------------|-----------------------|
D|-----|-----9~--7~--4-6-7-9-|-----------------------|
A|-7~--|-7~------------------|-7~--s14~--s12~--------|
E|-----|---------------------|-----------------2-4-5-|

Verse I:
G|-------------------------------------------------------------------|
D|-------------------------------------------------------------------|
A|-------------------------------------------------------------------|
E|-00-000-000-000-0-77-777-777-777-7-55-555-555-555-555-555-5-77-777-|

Pre-Chorus:
G|---------|--------------------------------------------------------------------|
D|---------|--------------------------------------------------------------------|
A|---------|-77-777-777-777-7s9-------------------------------------------------|
E|-2-4-5-7-|--------------------77-777-777-777-7-55-555-555-555-555-555-555-555-|

Chorus I:
G|-------------|------------------------------------|
D|-------------|------------------------------------|
A|---------7~--|-7777-66-7--4444444-----------------|
E|-2-4-5-7-----|--------------------5555555-7777777-|

Verse II:
G|-----|-----------|---------|---------|
D|-----|-----------|---------|---------|
A|-7~--|-7-4-2-0~--|-4s2-0~--|-6s4-2~--|
E|-----|-----------|---------|---------|

Chorus II:
G|-------------------------------------|
D|-------------------------------------|
A|-7777-66-7--4444444------------------|
E|---------------------5555555-7777777-|

Bridge I:
G|--------|-------|-------------------------------------|
D|--------|-------|-------------------------------------|
A|-7-x-11-|-x-x-x-|-------------------------------------|
E|--------|-------|-9999999s12121212121212s555555555555-|

Bridge II (take my hand...)
G|--------------------------------------------------|
D|--------------------------------------------------|
A|--------------------------------------------------|
E|-4-9999999s7777777s555555555555-4-9999999s7777777-|

Bridge III (Ending)
G|----------------------------------------------------------------------|
D|----------------------------------------------------------------------|
A|----------------------------------------------------------------------|
E|-5-3-5-3-5-3-5-3-5-3-7-5-7-5-7-5-7-5-5-3-5-3-5-3-5-3-5-3-777777777777-|

Chorus III:
G|-------------------------------------|
D|-------------------------------------|
A|-7777-66-7--4444444------------------|
E|---------------------5555555-7777777-|

Chorus IV (Solo part)
G|------------------------------------|
D|------------------------------------|
A|-7~--777--4~--444-------------------|
E|-------------------5~--555-5-7~-777-|

Outro:
G|-----------|
D|-----------|
A|-7-4-2-0~--|
E|-----------|
            
Submit corrections

comments powered by Disqus
↑ Back to top | Matchbook Romance Bass for Promise. Lyrics for acoustic guitar and electric guitar. Tablatures and chords are parodies/interpretations of the original songs. You may use it for private study, scholarship, research or language learning purposes only