>
 >
Promise

Promise Guitar Tabs

Matchbook Romance - Promise chords, tabs, tablatures, lyrics

Guitar lessons | Add/correct | Request | Top 50 tabs Artists:  A B C D E F G H I J K L M N O P Q R S T U V W X Y Z 0-9

Promise Guitar Tabs – Matchbook Romance

CD, Sheet music, Poster

Do you like Promise? Share with your friends now
Bass TabsBass Tabs v2ChordsChords v2TabsTabs v2Ukulele
Band:Matchbook Romance
Song title:Promise
Tuning:Standard
Notes:You may want to listen to the song for proper timing. Also this is not the CD version, this 

is a demo version. If something doesn't make sense to you, then make something up or figure it 

out yourself. This is as close as I can get it. Guitar 1 is the singer.

 ~ : Let ring
 / : Slide
 * : Harmonics
 . : Palm muting
 h : Hammer on
 p : Pull off
Intro: Guitar 2

e |----0---0---0---0---0---0---0---0---0---0---0---0---0---0---0------|
B |----0---0---0---0---0---0---0---0---0---0---0---0---0---0---0------|
G |-------------------------------------------------------------------|
D |--2---2---2---2---2------------------------------------------------|
A |----------------------2---2---2---2---2---0---0---0---0---0--------|
E |-------------------------------------------------------------------|


e |----0---0---0---0---0----------------------------------------------|
B |----0---0---0---0---0----------------------------------------------|
G |-------------------------------------------------------------------|
D |-------------------------------------------------------------------|
A |----------0---2---2------------------------------------------------|
E |--2---4------------------------------------------------------------|   x2


e |----0---0---0---0---0---0---0---2---0---0---0---2---5---4---4------|
B |----0---0---0---0---0---0---0---2---0---0---0---2---5---4---4------|
G |-------------------------------------------------------------------|
D |--2---2---2---2---2------------------------------------------------|
A |----------------------2---2---2---2---2---0---0---0---0---0--------|
E |-------------------------------------------------------------------|



e |-------------------------------------------------------------------|
B |-------------------------------------------------------------------|
G |-------------------------------------------------------------------|
D |--4---6---7~/2-----------------------------------------------------|
A |--4---6---7~/2-----------------------------------------------------|
E |--2---4---5~/0-----------------------------------------------------|

Time: 0:33


Verse 1: Guitar 2

e |----------*12------------------------------------------------------|
B |--------------*12--------------------------------------------------|
G |----------------------9---9-----9---9------------------------------|
D |--9~----------------9---9-----9---9--------------------------------|
A |--6~--------------7---------7---------x3---------------------------|
E |-------------------------------------------------------------------|



e |-------------------------------------------------------------------|
B |-------------------------------------------------------------------|
G |-------------------------------------------------------------------|
D |--4---6---7---9---9------------------------------------------------|
A |--4---6---7---9---9------------------------------------------------|
E |--2---4---5---7---7------------------------------------------------|

Time: 0:52


Verse 2: Guitar 1


e |-------------------------------------------------------------------|
B |-------------------------------------------------------------------|
G |--------------------------44---444---444---444---4-----------------|
D |--22---222---222---222---244---444---444---444---477---777---777---|
A |--22---222---222---222---222---222---222---222---277---777---777---| 
E |--00---000---000---000---0------------------------55---555---555---|



e |-------------------------------------------------------------------|
B |-------------------------------------------------------------------|
G |---------------------------------------------------------44---444--|
D |--777---777---777---799---999---922---222---222---222---244---444--|
A |--777---777---777---799---999---922---222---222---222---222---222--|
E |--555---555---555---577---777---700---000---000---000---0----------|



e |-------------------------------------------------------------------|
B |-------------------------------------------------------------------|
G |--444---444---4----------------------------------------------------|
D |--444---444---477---777---777---777---7---4---6---7---9---9--------|
A |--222---222---277---777---777---777---7---4---6---7---9---9--------|
E |---------------55---555---555---555---5---2---4---5---7---7--------|

          Guitar 2

e |-------------------------------------------------------------------|
B |-------------------------------------------------------------------|
G |--99---999---999---111111---99---999---999---988-------------------|
D |--99---999---999---111111---99---999---999---999-------------------|
A |--77---777---777---9 9 9 ---77---777---777---777-------------------|
E |-------------------------------------------------------------------|



e |-------------------------------------------------------------------|
B |-------------------------------------------------------------------|
G |--899---999---999---999---999---999---988---888--------------------|
D |--999---999---999---999---999---999---999---999--------------------|
A |--777---777---777---777---777---777---777---777--------------------|
E |-------------------------------------------------------------------|



e |-------------------------------------------------------------------|
B |-------------------------------------------------------------------|
G |--899---999---999---111111---99---999---999---888------------------|
D |--999---999---999---111111---99---999---999---999------------------|
A |--777---777---777---9 9 9 ---77---777---777---777------------------|
E |-------------------------------------------------------------------|



e |-------------------------------------------------------------------|
B |-------------------------------------------------------------------|
G |--899---999---999---111111-----------------------------------------|
D |--999---999---999---111111---4---6---7---9---9---------------------|
A |--777---777---777---9 9 9 ---4---6---7---9---9---------------------|
E |-----------------------------2---4---5---7---7---------------------|

Time: 1:09


Pre-Chorus: Guitar 1

e |-------------------------------------------------------------------|
B |-------------------------------------------------------------------|
G |-------------------------------------------------------------------|
D |--2~---------------------------------------------------------------|
A |--2~---------------------------------------------------------------|
E |--0~---------------------------------------------------------------|

Guitar 2

e |----0---0---0---0---0---0---0---0---0-------------------------------|
B |----0---0---0---0---0---0---0---0---0------------------------------|
G |-------------------------------------------------------------------|
D |--2---2---2---2---2---2---2---2---2--------------------------------|
A |-------------------------------------------------------------------|
E |-------------------------------------------------------------------|

Time: 1:14

Chorus: Guitar 1

e |-------------------------------------------------------------------|
B |-------------------------------------------------------------------|
G |------------6---------2---------4----------------------------------|
D |--2---------6---------2---------4----------------------------------|
A |--2---------4---x16---0---x16---2---x16----------------------------|
E |--0---x16----------------------------------------------------------|   x2

        Guitar 2

e |-------------------------------------------------------------------|
B |-------------------------------------------------------------------|
G |--9--------8--------9--------8--------9--------8-------------------|
D |--9--------9--------9--------9--------9--------9-------------------|
A |--7---x8---7---x8---7---x8---7---x8---7---x8---7---x8--------------|
E |-------------------------------------------------------------------|



e |-------------------------------------------------------------------|
B |-------------------------------------------------------------------|
G |--9--------11-------13---------------------------------------------|
D |--9--------11-------13---------------------------------------------|
A |--7---x8---9---x4---11---x4----------------------------------------|
E |-------------------------------------------------------------------|   x2

Time: 1:32 

Verse 3: Guitar 1


e |-------------------------------------------------------------------|
B |-------------------------------------------------------------------|
G |--2~---6-4---6-4-6---6---------------------------------------------|
D |--x----x-x---x-x-x---x-4444444444444444----------------------------|
A |--0~---4-2---4-2-4---4-2222222222222222----------------------------|
E |-------------------------------------------------------------------|
                          ................

        Guitar 2


e |-------------------------------------------------------------------|
B |-------------------------------------------------------------------|
G |----9---9----------------------------------------------------------|
D |-------------------You can listen to the song----------------------|
A |--77--77------------to figure out the timing.----------------------|
E |-------------------------------------------------------------------|
     ..  ..
                                 OR

e |----0---0----------------------------------------------------------|
B |-------------------------------------------------------------------|
G |-------------------------------------------------------------------|
D |--22--22-----------------------------------------------------------|
A |-------------------------------------------------------------------|
E |-------------------------------------------------------------------|
     ..  ..
                                 OR

e |-------------------------------------------------------------------|
B |----5---5----------------------------------------------------------|
G |-----------------Pick which everyone you prefer.-------------------|
D |--22--22---------Personally, i think the sound --------------------|
A |-----------------effect is the best on this one.-------------------|
E |-------------------------------------------------------------------|
     ..  .. 

Time: 1:49

Chorus: Guitar one

e |-------------------------------------------------------------------|
B |-------------------------------------------------------------------|
G |------------6---------2---------4----------------------------------|
D |--2---------6---------2---------4----------------------------------|
A |--2---------4---x16---0---x16---2---x16----------------------------|
E |--0---x16----------------------------------------------------------|   x2


        Guitar 2


e |-------------------------------------------------------------------|
B |-------------------------------------------------------------------|
G |--9--------8--------9--------8--------9--------8-------------------|
D |--9--------9--------9--------9--------9--------9-------------------|
A |--7---x8---7---x8---7---x8---7---x8---7---x8---7---x8--------------|
E |-------------------------------------------------------------------|



e |-------------------------------------------------------------------|
B |-------------------------------------------------------------------|
G |--9--------11-------13---------------------------------------------|
D |--9--------11-------13---------------------------------------------|
A |--7---x8---9---x4---11---x4----------------------------------------|
E |-------------------------------------------------------------------|   x2

Time: 2:06

Pre-Bridge: Guitar 1

e |-------------------------------------------------------------------|
B |-------------------------------------------------------------------|
G |-------------------------------------------------------------------|
D |--2~---------------------2~----------------------------------------|
A |--2~---------------------2~----------------------------------------|
E |--0~---------------------0~----------------------------------------|

            Guitar 2

e |-------------------------------------------------------------------|
B |-------------------------------------------------------------------|
G |-------------------------------------------------------------------|
D |-------------------------9-11-13~----------------------------------|
A |-------------------------7-9--11~----------------------------------|
E |-------------------------------------------------------------------|

Time: 2:14

Bridge: Guitar 1

e |-------------------------------------------------------------------|
B |-------------------------------------------------------------------|
G |-------------------------------------------------------------------|
D |--66666666-------44444444-------22222222---------------------------|
A |--44444444--x2---22222222--x2---00000000--x4-----------------------|
E |-------------------------------------------------------------------|

        Guitar 2

e |--------------------------------*12-*7-*5~---*5-*7-*5-*12----------|
B |-------------------------------------------------------------------|
G |-------------------------------------------------------------------|
D |-------------------------------------------------------------------|
A |-------------------------------------------------------------------|
E |-------------------------------------------------------------------|



e |-------------------------------------------------------------------|
B |-------------------------------------------------------------------|
G |-------------------------------------------------------------------|
D |--66666666-------99999999------------------------------------------|
A |--44444444--x2---66666666--x2--------------------------------------|
E |-------------------------------------------------------------------|



e |-------------------------------------------------------------------|
B |-------------------------------------------------------------------|
G |-------------------------------------------------------------------|
D |--99999999999999999999999999999------------------------------------|
A |--77777766777777677777776767976------------------------------------|
E |-------------------------------------------------------------------|
     .............................


e |-------------------------------------------------------------------|
B |-------------------------------------------------------------------|
G |--99999999999999998999999989998999---------------------------------|
D |-------------------------------------------------------------------|
A |-------------------------------------------------------------------|
E |-------------------------------------------------------------------|

Time: 2:44

Bridge Continued: Guitar 1

e |-------------------------------------------------------------------|
B |-------------------------------------------------------------------|
G |-------------------------------------------------------------------|
D |--77---77---77---77---77---77---77---7777---7777-------------------|
A |--77---77---77---77---77---77---77---7777---7777-------------------|
E |--55---55---55---55---55---55---55---5555---5555-------------------|



e |-------------------------------------------------------------------|
B |-------------------------------------------------------------------|
G |-------------------------------------------------------------------|
D |--99---99---99---99---99---99---99---9999---9999-------------------|
A |--99---99---99---99---99---99---99---9999---9999-------------------|
E |--77---77---77---77---77---77---77---7777---7777-------------------|   x2

                  Guitar 2                                            _____
                                                                           |
e |-------------------------------------------------------------------|    
B |-------------------------------------------------------------------|
G |-------------------------------------------------------------------|
D |--77---77---77---77---77---77---77---7777---7777-------------------|    |
A |--77---77---77---77---77---77---77---7777---7777-------------------|
E |--55---55---55---55---55---55---55---5555---5555-------------------|

                                                                           |

e |-------------------------------------------------------------------|
B |-------------------------------------------------------------------|     These parts may 
G |-------------------------------------------------------------------|    |be longer than 
D |--99---99---99---99---99---99---99---9999---9999-------------------|      the tab says.
A |--99---99---99---99---99---99---99---9999---9999-------------------| 
E |--77---77---77---77---77---77---77---7777---7777-------------------|

                                                                           |

e |-------------------------------------------------------------------|
B |-------------------------------------------------------------------|
G |--66---66---66---66---66---66---66---6666---6666-------------------|    |
D |--66---66---66---66---66---66---66---6666---6666-------------------|
A |--44---44---44---44---44---44---44---4444---4444-------------------|
E |-------------------------------------------------------------------|

                                                                      _____|

e |-------------------------------------------------------------------|
B |-------------------------------------------------------------------|
G |--99999999999999991111111111119988888------------------------------|
D |--99999999999999991111111111119999999------------------------------|
A |--77777777777777779 9 9 9 9 9 7777777------------------------------|
E |-------------------------------------------------------------------|

Time: 2:59

Chorus: Guitar 1

e |-------------------------------------------------------------------|
B |-------------------------------------------------------------------|
G |------------6---------2---------4----------------------------------|
D |--2---------6---------2---------4----------------------------------|
A |--2---------4---x16---0---x16---2---x16----------------------------|
E |--0---x16----------------------------------------------------------|   x2

        Guitar 2

e |-------------------------------------------------------------------|
B |-------------------------------------------------------------------|
G |--9--------8--------9--------8--------9--------8-------------------|
D |--9--------9--------9--------9--------9--------9-------------------|
A |--7---x8---7---x8---7---x8---7---x8---7---x8---7---x8--------------|
E |-------------------------------------------------------------------|



e |-------------------------------------------------------------------|
B |-------------------------------------------------------------------|
G |--9--------11-------13---------------------------------------------|
D |--9--------11-------13---------------------------------------------|
A |--7---x8---9---x4---11---x4----------------------------------------|
E |-------------------------------------------------------------------|   x2

Time: 3:16

Outro: Guitar 1

e |-------------------------------------------------------------------|
B |-------------------------------------------------------------------|
G |------------------66666-66666-666-22222-22222-222-44444-44444-444--|
D |--22222-22222-222-66666-66666-666-22222-22222-222-44444-44444-444--|
A |--22222-22222-222-44444-44444-444-00000-00000-000-22222-22222-222--|
E |--00000-00000-000--------------------------------------------------|   x2

       Guitar 2

e |-------------------------------------------------------------------|
B |-------------------------------------------------------------------|
G |-------------------------------------------------------------------|
D |------9-----9-7-6-----9-----9-11-13/14-16-18-16-14-13--------------|
A |--6h7---6h7-------6h7---6h7----------------------------------------|
E |-------------------------------------------------------------------|



e |-------------------------------------------------------------------|
B |------12-----12-10-9-----12-----12-10-9-10-9-7-5-7-9-7-5-4---------|
G |--8h9----8h9---------8h9----8h9------------------------------------|
D |-------------------------------------------------------------------|
A |-------------------------------------------------------------------|
E |-------------------------------------------------------------------|

Time: 3:32

Outro continued: Guitar 1

e |-------------------------------------------------------------------|
B |-------------------------------------------------------------------|
G |-------8/9/8---9---------------------------------------------------|
D |--7~---x-x-x---x---------------------------------------------------|
A |--x----6/7/6---7---------------------------------------------------|
E |--5~---------------------------------------------------------------|

                 Guitar 2

e |--12-12h13p12---12h13p11---h12-------------------------------------|
B |-------------------------------------------------------------------|
G |-------------------------------------------------------------------|
D |-------------------------------------------------------------------|
A |-------------------------------------------------------------------|
E |-------------------------------------------------------------------|

  THE END





Comments


Popular Matchbook Romance tabs & chords
Monsters 1 Bass Tabs
My Eyes Burn Chords
Monsters 3 Tabs
Monsters 5 Tabs
Monsters 7 Tabs
Monsters Intro Tabs
Portrait Tabs
The Greatest Fall (Of All Time) Tabs
Farewell To Friends Ukulele
Your Stories My Alibis Ukulele


Song lyrics



↑ Back to top | Tablatures and chords are parodies/interpretations of the original songs. You may use it for private study, scholarship, research or language learning purposes only
© 2014 AZChords.com Contact us | Privacy policy | DMCA | Add/correct tabs | Request tabs | Top 50 tabs