>
 >
Playing For Keeps

Playing For Keeps Guitar Tabs

Matchbook Romance - Playing For Keeps chords, tabs, tablatures, lyrics

Guitar lessons | Add/correct | Request | Top 50 tabs Artists:  A B C D E F G H I J K L M N O P Q R S T U V W X Y Z 0-9

Playing For Keeps Guitar Tabs – Matchbook Romance

CD, Sheet music, Poster

Do you like Playing For Keeps? Share with your friends now
TabsTabs v2Tabs v3Tabs v4
gtr. 1 intro/verse
-----------------------------------------------------------------|
-----------------------------------------------------------------|
--6--6-6--6--6-6--6-6-----------------------9--9-9--9--9-9--9-9--|
--6--6-6--6--6-6--6-6--7--7-7--7--7-7--7-7--9--9-9--9--9-9--9-9--|
--4--4-4--4--4-4--4-4--7--7-7--7--7-7--7-7--7--7-7--7--7-7--7-7--|
-----------------------5--5-5--5--5-5--5-5-----------------------|

-----------------------|
-----------------------|
-----------------------|
--9--9-9--9--9-9--9-9--|
--9--9-9--9--9-9--9-9--|
--7--7-7--7--7-7--7-7--|

gtr. 2 intro / verse
----------------------------|       --------------------------|
----------------------------|       --------------------------|
--6--6-6--6-6--6-6--8--9-9--|  (x3) --6--6-6--6-6--6-6--8--13-|
--x--x-x--x-x--x-x--8--9-9--|       --x--x-x--x-x--x-x--x--x--|
--4--4-4--4-4--4-4--6--7-7--|       --4--4-4--4-4--4-4--6--11-|
----------------------------|       --------------------------|

and then gtr. 2 plays:
-----------------------------------------------------------------|
-----------------------------------------------------------------|
--13--13-13-13-13--1111/14-13----13--13-13-13-13--1111/14-14/16--|
--x---x--x--x--x----x-x/-x--x-----x---x--x--x--x---x-x/-x--x/-x--|
--11--11-11-11-11---9-9/12-11----11--11-11-11-11---9-9/12-12/14--|
-----------------------------------------------------------------|

gtr. 1 intro/verse
-----------------------------------------------------------------|
-----------------------------------------------------------------|
--6--6-6--6--6-6--6-6-----------------------9--9-9--9--9-9--9-9--|
--6--6-6--6--6-6--6-6--7--7-7--7--7-7--7-7--9--9-9--9--9-9--9-9--|
--4--4-4--4--4-4--4-4--7--7-7--7--7-7--7-7--7--7-7--7--7-7--7-7--|
-----------------------5--5-5--5--5-5--5-5-----------------------|

-----------------------|
-----------------------|
-----------------------|
--9--9-9--9--9-9--9-9--|
--9--9-9--9--9-9--9-9--|
--7--7-7--7--7-7--7-7--|

gtr. 2 intro / verse
----------------------------|       --------------------------|
----------------------------|       --------------------------|
--6--6-6--6-6--6-6--8--9-9--|  (x3) --6--6-6--6-6--6-6--8--13-|
--x--x-x--x-x--x-x--8--9-9--|       --x--x-x--x-x--x-x--x--x--|
--4--4-4--4-4--4-4--6--7-7--|       --4--4-4--4-4--4-4--6--11-|
----------------------------|       --------------------------|


gtr. 1 chorus
---------------------------------------------------------------------------|
---------------------------------------------------------------------------|
------------------4-4-4-4-4-4-4-4-2-2-2-2-2-2-2-2--2-2-4-4--4-4\2-2-2-2-2-2|
--2-2-2-2-2-2-2-2-4-4-4-4-4-4-4-4-2-2-2-2-2-2-2-2--2-2-4-4--4-4\2-2-2-2-2-2|
--2-2-2-2-2-2-2-2-2-2-2-2-2-2-2-2-0-0-0-0-0-0-0-0--0-0-2-2--2-2\0-0-0-0-0-0|
--0-0-0-0-0-0-0-0----------------------------------------------------------|

---------------------------------------------------------------------------|
---------------------------------------------------------------------------|
------------------4-4-4-4-4-4-4-4-2-2-2-2-2-2-2-2--2-2-4-4--4-4\2-2-2-2-2-2|
--2-2-2-2-2-2-2-2-4-4-4-4-4-4-4-4-2-2-2-2-2-2-2-2--2-2-4-4--4-4\2-2-2-2-2-2|
--2-2-2-2-2-2-2-2-2-2-2-2-2-2-2-2-0-0-0-0-0-0-0-0--0-0-2-2--2-2\0-0-0-0-0-0|
--0-0-0-0-0-0-0-0----------------------------------------------------------|
PM. . . .

gtr. 2 chorus (x2)
-----------------------------------------------------------------|
-----------------------------------------------------------------|
--13--13-13-13-13--1111/14-13----13--13-13-13-13--1111/14-14/16--|
--x---x--x--x--x----x-x/-x--x-----x---x--x--x--x---x-x/-x--x/-x--|
--11--11-11-11-11---9-9/12-11----11--11-11-11-11---9-9/12-12/14--|
-----------------------------------------------------------------|

-----------------------------------------------------------12------------|
------------------------------------------------------9h10-----12-9h10p9-|
--13--13-13-13-13--1111/14-13----13--13-13-13-13---11--------------------|
--x---x--x--x--x----x-x/-x--x-----x---x--x--x--x-------------------------|
--11--11-11-11-11---9-9/12-11----11--11-11-11-11-------------------------|
-------------------------------------------------------------------------|


gtr. 1 post-chorus
----------------------------------------------------------------|
----------------------------------------------------------------|
--6-6--6-6-6---6-6--6-6-6--2*--2-2-2-2-2-2-2-2-2-2-2-2-2-2-2-2--|
--6-6--6-6-6---6-6--6-6-6------2-2-2-2-2-2-2-2-2-2-2-2-2-2-2-2--|
--4-4--4-4-4---4-4--4-4-4------0-0-0-0-0-0-0-0-0-0-0-0-0-0-0-0--|
----------------------------------------------------------------|

---------------------------------------------------------------|
---------------------------------------------------------------|
--6-6--6-6-6---6-6--6-6-6----2-2-2-2-2-2-2-2-2-2-2-2-2-2-2-2---|
--6-6--6-6-6---6-6--6-6-6----2-2-2-2-2-2-2-2-2-2-2-2-2-2-2-2---|
--4-4--4-4-4---4-4--4-4-4----0-0-0-0-0-0-0-0-0-0-0-0-0-0-0-0---|
---------------------------------------------------------------|


gtr. 2 post chorus
-------0-------0-|
--2h4-----2h4----|
-----------------|
-----------------|
-----------------|
-----------------|

gtr. 1 chorus
---------------------------------------------------------------------------|
---------------------------------------------------------------------------|
------------------4-4-4-4-4-4-4-4-2-2-2-2-2-2-2-2--2-2-4-4--4-4\2-2-2-2-2-2|
--2-2-2-2-2-2-2-2-4-4-4-4-4-4-4-4-2-2-2-2-2-2-2-2--2-2-4-4--4-4\2-2-2-2-2-2|
--2-2-2-2-2-2-2-2-2-2-2-2-2-2-2-2-0-0-0-0-0-0-0-0--0-0-2-2--2-2\0-0-0-0-0-0|
--0-0-0-0-0-0-0-0----------------------------------------------------------|

---------------------------------------------------------------------------|
---------------------------------------------------------------------------|
------------------4-4-4-4-4-4-4-4-2-2-2-2-2-2-2-2--2-2-4-4--4-4\2-2-2-2-2-2|
--2-2-2-2-2-2-2-2-4-4-4-4-4-4-4-4-2-2-2-2-2-2-2-2--2-2-4-4--4-4\2-2-2-2-2-2|
--2-2-2-2-2-2-2-2-2-2-2-2-2-2-2-2-0-0-0-0-0-0-0-0--0-0-2-2--2-2\0-0-0-0-0-0|
--0-0-0-0-0-0-0-0----------------------------------------------------------|
PM. . . .

gtr. 2 chorus (x2)
-----------------------------------------------------------------|
-----------------------------------------------------------------|
--13--13-13-13-13--1111/14-13----13--13-13-13-13--1111/14-14/16--|
--x---x--x--x--x----x-x/-x--x-----x---x--x--x--x---x-x/-x--x/-x--|
--11--11-11-11-11---9-9/12-11----11--11-11-11-11---9-9/12-12/14--|
-----------------------------------------------------------------|

-----------------------------------------------------------12------------|
------------------------------------------------------9h10-----12-9h10p9-|
--13--13-13-13-13--1111/14-13----13--13-13-13-13---11--------------------|
--x---x--x--x--x----x-x/-x--x-----x---x--x--x--x-------------------------|
--11--11-11-11-11---9-9/12-11----11--11-11-11-11-------------------------|
-------------------------------------------------------------------------|

gtr. 1 post-chorus
------------|
------------|
--6---------|
--6-(a lot)-|
--4---------|
------------|

gtr. 2 post chorus
----------------|        -12-11---------------------12-11----|
--4-5-12-4-5-12-| (x10)  -------12---10p9h10---9h10-------12-|
----------------|        ------------------------------------|
----------------|        ------------------------------------|
----------------|        ------------------------------------|
----------------|        ------------------------------------|
  T T T T T T T
(The T is for tapping notes)

gtr. 1 bridge pt 1
----------------------------------------------------------------|
----------------------------------------------------------------|
---------------------4-2~------------------------------4-2~-----|
--2~---------------2-4-2~----------------------------2-4-2~-----|
--2~---------------2-2-2~----------------------------2-2-0~-----|
--0~---------------0---------------------------------0----------|


gtr. 2 bridge
--12----12----12----12----12----12----11----11----|
-----12----12----12----12----12----12----12----12-|This is
--------------------------------------------------|playing
--------------------------------------------------|almost all
--------------------------------------------------|the bridge
--------------------------------------------------|


gtr. 1 bridge part 2
-----------------------------------------------------------------------|
-----------------------------------------------------------------------|
--4-4-4-4-4-4-4-4-4-4-4-4-4-4-4-4-6-6-6-6-6-6-6-6-8-8-9-9-9-9-9-9-9-9--|
--4-4-4-4-4-4-4-4-4-4-4-4-4-4-4-4-6-6-6-6-6-6-6-6-8-8-9-9-9-9-9-9-9-9--|
--2-2-2-2-2-2-2-2-2-2-2-2-2-2-2-2-4-4-4-4-4-4-4-4-6-6-7-7-7-7-7-7-7-7--|
-----------------------------------------------------------------------|
  . . . . . . . . . . . . . . . . . . . . . . . . . . . . . . . . . .


-----------------------------------|-----------------------------------|
-----------------------------------|-----------------------------------|
-----------------------------------|-----------------------------------|
--7-7-7-7-7-7-7-7-7-7-7-7-7-7-7-7--|--9-9-9-9-9-9-9-9-7-7-7-7-5-5-5-5--|
--7-7-7-7-7-7-7-7-7-7-7-7-7-7-7-7--|-----------------------------------|
--5-5-5-5-5-5-5-5-5-5-5-5-5-5-5-5--|-----------------------------------|
  . . . . . . .   . .   . .   .

-----------------------------------|---------------------------------|
-----------------------------------|---------------------------------|
-----------------------------------|---------------------------------|
--9-9-9-9-9-9-9-9-7-7-7-7-5-5-5-5--|--6h7p6------6h7p6------6h7-9----|
-----------------------------------|--------7-7--------7-7-----------|
-----------------------------------|---------------------------------|
                                              .          .

---------------------------------|---------------------------------------|
---------------------------------|---------------------------------------|
---------------------------------|---------------------------------------|
--6h7p6------6h7p6------6h7-9----|--9-9-9-9-9-9-9-9-7-7-7-7-11-11-11-11--|
--------7-7--------7-7-----------|---------------------------------------|
---------------------------------|---------------------------------------|
          .          .

-----------------------------------|----------------------------|
-----------------------------------|----------------------------|
-----------------------------------|----------------------------|
--9-9-9-9-9-9-9-9-7-7-7-7-6-6-6-6--|-6h7p6-----6h7p6-----6h7-9--|
-----------------------------------|-------7-7-------7-7--------|
-----------------------------------|----------------------------|

----------------------------|-----------------------------------|
----------------------------|-----------------------------------|
----------------------------|-----------------------------------|
-6h7p6-----6h7p6-----6h7-9--|--7----6h7p6-----------------------|
-------7-7-------7-7--------|---------------7---9---11----------|
----------------------------|-----------------------------------|

gtr. 1 chorus
---------------------------------------------------------------------------|
---------------------------------------------------------------------------|
------------------4-4-4-4-4-4-4-4-2-2-2-2-2-2-2-2--2-2-4-4--4-4\2-2-2-2-2-2|
--2-2-2-2-2-2-2-2-4-4-4-4-4-4-4-4-2-2-2-2-2-2-2-2--2-2-4-4--4-4\2-2-2-2-2-2|
--2-2-2-2-2-2-2-2-2-2-2-2-2-2-2-2-0-0-0-0-0-0-0-0--0-0-2-2--2-2\0-0-0-0-0-0|
--0-0-0-0-0-0-0-0----------------------------------------------------------|

---------------------------------------------------------------------------|
---------------------------------------------------------------------------|
------------------4-4-4-4-4-4-4-4-2-2-2-2-2-2-2-2--2-2-4-4--4-4\2-2-2-2-2-2|
--2-2-2-2-2-2-2-2-4-4-4-4-4-4-4-4-2-2-2-2-2-2-2-2--2-2-4-4--4-4\2-2-2-2-2-2|
--2-2-2-2-2-2-2-2-2-2-2-2-2-2-2-2-0-0-0-0-0-0-0-0--0-0-2-2--2-2\0-0-0-0-0-0|
--0-0-0-0-0-0-0-0----------------------------------------------------------|
PM. . . .

gtr. 2 chorus (x2)
-----------------------------------------------------------------|
-----------------------------------------------------------------|
--13--13-13-13-13--1111/14-13----13--13-13-13-13--1111/14-14/16--|
--x---x--x--x--x----x-x/-x--x-----x---x--x--x--x---x-x/-x--x/-x--|
--11--11-11-11-11---9-9/12-11----11--11-11-11-11---9-9/12-12/14--|
-----------------------------------------------------------------|

-----------------------------------------------------------12------------|
------------------------------------------------------9h10-----12-9h10p9-|
--13--13-13-13-13--1111/14-13----13--13-13-13-13---11--------------------|
--x---x--x--x--x----x-x/-x--x-----x---x--x--x--x-------------------------|
--11--11-11-11-11---9-9/12-11----11--11-11-11-11-------------------------|
-------------------------------------------------------------------------|


gtr. 1 chorus
---------------------------------------------------------------------------|
---------------------------------------------------------------------------|
------------------4-4-4-4-4-4-4-4-2-2-2-2-2-2-2-2--2-2-4-4--4-4\2-2-2-2-2-2|
--2-2-2-2-2-2-2-2-4-4-4-4-4-4-4-4-2-2-2-2-2-2-2-2--2-2-4-4--4-4\2-2-2-2-2-2|
--2-2-2-2-2-2-2-2-2-2-2-2-2-2-2-2-0-0-0-0-0-0-0-0--0-0-2-2--2-2\0-0-0-0-0-0|
--0-0-0-0-0-0-0-0----------------------------------------------------------|

---------------------------------------------------------------------------|
---------------------------------------------------------------------------|
------------------4-4-4-4-4-4-4-4-2-2-2-2-2-2-2-2--2-2-4-4--4-4\2-2-2-2-2-2|
--2-2-2-2-2-2-2-2-4-4-4-4-4-4-4-4-2-2-2-2-2-2-2-2--2-2-4-4--4-4\2-2-2-2-2-2|
--2-2-2-2-2-2-2-2-2-2-2-2-2-2-2-2-0-0-0-0-0-0-0-0--0-0-2-2--2-2\0-0-0-0-0-0|
--0-0-0-0-0-0-0-0----------------------------------------------------------|
PM. . . .

gtr. 2 chorus (x2)


gtr. 2 post chorus
----------------|       -4-5-12-4-5-12--|         -12-11----|
--4-5-12-4-5-12-| (x10) ----------------| (x20)   ------12~-|
----------------|       ----------------|         ----------|
----------------|       ----------------|         ----------|
----------------|       ----------------|         ----------|
----------------|       ----------------|         ----------|
  T T T T T T T          T T T T T T T
(The T is for tapping notes)





Comments


Popular Matchbook Romance tabs & chords
If All Else Fails Bass Tabs
Lovers And Liars Chords
Monsters Chords
Stay Tonight Chords
Tiger Lily Chords
14 Balloons Tabs
Monsters 3 Tabs
The Greatest FallIntro Tabs
Monsters Ukulele
Surrender Ukulele


Song lyrics



↑ Back to top | Tablatures and chords are parodies/interpretations of the original songs. You may use it for private study, scholarship, research or language learning purposes only
© 2014 AZChords.com Contact us | Privacy policy | DMCA | Add/correct tabs | Request tabs | Top 50 tabs