>
 >
Playing For Keeps 1

Playing For Keeps 1 Guitar Tabs

Matchbook Romance - Playing For Keeps 1 chords, tabs, tablatures, lyrics

Guitar lessons | Add/correct | Request | Top 50 tabs Artists:  A B C D E F G H I J K L M N O P Q R S T U V W X Y Z 0-9

Playing For Keeps 1 Guitar Tabs – Matchbook Romance

CD, Sheet music, Poster

Do you like Playing For Keeps 1? Share with your friends now
TabsTabs v2Tabs v3Tabs v4
Tuning: 1/2 step down (Eb, Ab, Db, Gb, Bb, eb)


gtr. 1 intro / verse                                                                       
------------------------------|
------------------------------|
--6-------------6-------------|
--6-(x6)-7------6-(x6)-5------|
--4------7-(x6)-4------5-(x6)-|
---------5-------------7------|


gtr. 2 intro / verse
----------|----------------------------|----------|
----------|----------------------------|----------|
--6--8--9-|--13\11/14\13---13\11/14/16-|--6--8--9-|
--x--x--x-|---x--x--x--x----x--x--x--x-|--x--x--x-|
--4--6--7-|--11\-9/12\11---11\-9/12/14-|--4--6--7-|
----------|----------------------------|----------|


gtr. 1 chorus
--------------------------------------------|
--------------------------------------------|
---------4------2------4------2------4------|
--2------4-(x8)-2-(x8)-4-(x4)-2-(x2)-4-(x2)-|
--2-(x8)-2------0------2------0------2------|
--0-----------------------------------------|

  
gtr. 2 chorus
------------------------------------------------------------12---------|
-----------------------------------------------------9h10p9----12-9-10-|
--13\11/14\13---13\11/14/16---13\11/14\13---13\11-11-------------------|
---x--x--x--x----x--x--x--x----x--x--x--x----x--x----------------------|
--11\-9/12\11---11\-9/12/14---11\-9/12\11---11\-9----------------------|
-----------------------------------------------------------------------|


gtr. 1 post-chorus 1                                                                  
-----------------------|
-----------------------|
--6-------2------------|
--6-(x32)-2-(let ring)-|
--4-------0------------|
-----------------------|


gtr. 2 post chorus 1
-------0-------0-|
--2h4-----2h4----|
-----------------|
-----------------|
-----------------|
-----------------|


gtr. 1 post-chorus 2 into bridge                                                                  
------------|
------------|
--6---------|
--6-(a lot)-|
--4---------|
------------|


gtr. 2 post chorus 2 into bridge
--7-----7-----7-----7--------------|-12-11---------------------12-11----|
----------------------(a lot then)-|-------12---10p9h10---9h10-------12-|
----8h9---8h9---8h9----------------|------------------------------------|
-----------------------------------|------------------------------------|
-----------------------------------|------------------------------------|
-----------------------------------|------------------------------------|


gtr. 1 bridge pt 1
--------------------------------|
--------------------------------|
-----------------4-2------------|
--2------------2-4-2-(let ring)-|
--2-(let ring)-2-2-0------------|
--0------------0----------------|


gtr. 2 bridge
--12----12----12----12----12----12----11----11----|
-----12----12----12----12----12----12----12----12-|
--------------------------------------------------|
--------------------------------------------------|
--------------------------------------------------|
--------------------------------------------------|


gtr. 1 bridge part 2
---------------------------------------|
---------------------------------------|
--4-------6------8------9--------------|
--4-(x16)-6-(x6)-8-(x2)-9-(x8)-7-------|
--2-------4------6------7------7-(x16)-|
-------------------------------5-------|


gtr. 1 bridge part 3                                                                    
-----------------------|
-----------------------|
-----------------------|
--9-(x8)-7-(x4)-6-(x4)-|
-----------------------|
-----------------------|


gtr. 1 bridge part 4                                                                     
------------------------------|
------------------------------|
------------------------------|
--6h7p6------6h7p6------6h7-9-|
--------7--7-------7--7-------|
------------------------------|


gtr. 1 bridge part 5
----------------------------------------------------------------------------
----------------------------------------------------------------------------
--4------2------6------4------2-------------2------9---------------------
--x-(x8)-x-(x4)-x-(x4)-x-(x8)-x-(x4)-6-(x4)-x-(x8)-x-(x8)---7---6h7p6----6-
--2------0------4------2------0------x------4------7--------------------7--9
-------------------------------------4--------------------------------------


gtr. 1 outro part 1
--------------------------------------------|
--------------------------------------------|
---------4------2------4------2------4------|
--2------4-(x8)-2-(x8)-4-(x4)-2-(x2)-4-(x2)-|
--2-(x8)-2------0------2------0------2------|
--0-----------------------------------------|

  
gtr. 1 outro part 2                                        
----------------------------|
----------------------------|
--6--------9-8--------------|
--6-(x29)--9-8-9------------|
--4--------7-6-9-(let ring)-|
---------------7------------|


gtr. 2 outro
------7---------------------12-----------------12-11----------------|
--------(a lot then)-----------(a lot then)----------12-(let ring)--|
--8h9-----------------13h14-----------------------------------------|
--------------------------------------------------------------------|
--------------------------------------------------------------------|
--------------------------------------------------------------------|





Comments


Popular Matchbook Romance tabs & chords
Promise 1 Bass Tabs
The Greatest Fall 3 Bass Tabs
Story Of A Girl Cover Chords
Tiger Lily 3 Tabs
Wish I Could Leave (Intro) Tabs
If All Else Fails Ukulele
Monsters Ukulele
Shell Never Understand Ukulele
Stay Tonight Ukulele
Surrender Ukulele


Song lyrics



↑ Back to top | Tablatures and chords are parodies/interpretations of the original songs. You may use it for private study, scholarship, research or language learning purposes only
© 2014 AZChords.com Contact us | Privacy policy | DMCA | Add/correct tabs | Request tabs | Top 50 tabs