» » »

Mason Jennings, Ballad Of Paul And Sheila Tabs (ver.1)

Artists:  A B C D E F G H I J K L M N O P Q R S T U V W X Y Z # 

Ballad Of Paul And Sheila Tabs (ver.1)

Mason Jennings Tabs
 Rating:
4.2/5 (5 votes)
Ballad Of Paul And Sheila lessons Tabs too difficult? Try these video lessons and learn fast
                "Ballad of Paul and Sheila" By Mason Jennings
These tabs are exact. You're welcome.
**Tune 1/2 Step Down**


Intro/Verse Tabs
eb---7-----7-----7------7-----2-----2----2----2-----|
Bb-------8-----8------8-----8----3-----3----3----3--|
Gb------------------------------0----0-----0---0----|
Db--------9------------9-----------4---------4------|
Ab--10-10---10---10-10---10---5----------5----------|
Eb--------------------------------------------------|

-0----0----0----0----3----3----2----2----2----2----|
----1----1----1----1----3----3----3----3----3----3-|
---0---0-----0---0-----0---0-----2---2-----2---2---|
-----2---------2---------0---------4---------4-----|
-3---------3-------------------5---------5---------|
---------------------3-----------------------------|


Chorus Tabs
eb-0----0----0----0----0----0----0----0------------|
Bb----1----1----1----1----1----1----1----1---------|
Gb---0---0-----0---0-----2---2-----2---2-----------|
Db-----2---------2---------2---------2-------------|
Ab-3---------3---------0---------0-----------------|
Eb-------------------------------------------------|

-2----2----2----2----0----0----3----3----3----3----|
----3----3----3----3----1----1----3----3----3---3--|
---2---2-----2---2-----0---0-----0---0-----0---0---|
-----4---------4---------2---------0---------0-----|
-5---------5---------3-----------------------------|
-------------------------------3---------3---------|

Verse:
October morning, little plane on the forest floor
Up on the tv between a rerun and another war
Here in a hotel, trying to make some sense of this
Two thousand miles from my family in minneapolis


Chorus:
Hey senator, i wanna say
All the things you fought for did not die here today
Hey senator, i'm gonna do
All the things i can to live my life more like you lived

Intro Repeat

Verse:
A story of a love undivided for thirty-nine years
Strong when it counted through the hard times and the fears
Together forever, that was always what it was about
No hesitation, there was never any doubt

Chorus:
Hey hey sheila, I want to say
All the things you fought for did not die here today
Hey hey sheila, I'm gonna do
All the things I can to live my life more like you lived

Intro Repeat

Chorus:
Hey senator, I wanna say
All the things you fought for did not die here today
Hey hey sheila, I'm gonna do
All the things I can to live my life more like you lived

Outtro Tabs:
eb----------0---0h2p0-------------------------------|
Bb--0---3-------------3-0-------0-----0-------0-----|
Gb--------------------------0-------0-----0-------0-|
Db----0---0---0-----------0-------0-----0-------0---|
Ab--------------------------------------------------|
Eb--3---3---3---3-------3-----3-------3-----3-------| x 4 Then Strum G
            
Submit corrections

comments powered by Disqus
↑ Back to top | Mason Jennings Tabs for Ballad Of Paul And Sheila. Lyrics for acoustic guitar and electric guitar. Tablatures and chords are parodies/interpretations of the original songs. You may use it for private study, scholarship, research or language learning purposes only