» » »

Butterfly Tabs (ver.1)

Artists:  A B C D E F G H I J K L M N O P Q R S T U V W X Y Z # 

Butterfly Tabs (ver.1)

Mason Jennings
Rating:
3/5 (1 vote)

Hard to play? Try these video lessons and learn fast.
                
"Butterfly" By Mason Jennings

**Tune 1/2 Step Down**


Intro 
eb--x-x-x-x----4--------x-x-x-x----4--------x-x-x-x----4------------5---|
Bb--x-x-x-x--4---4h5----x-x-x-x--4---4h5----x-x-x-x--4---4h5--------7---|
Gb--x-x-x-x-------------x-x-x-x-------------x-x-x-x-----------------8---|
Db----------------------------------------------------------------------|
Ab----------------------------------------------------------------------|
Eb----------------------------------------------------------------------|



Verse Chords (PM throughout)
eb-----------------------------------------------------|
Bb-----------------------------------------------------|
Gb-----------------------------------------------------|
Db---2-2-2-2-2-2-2-2-4-4-4-4-4-4-4-4-2-2-2-2-6-6-6-6---|
Ab---2-2-2-2-2-2-2-2-2-2-2-2-2-2-2-2-2-2-2-2-4-4-4-4---|
Eb---0-0-0-0-0-0-0-0-----------------0-0-0-0-----------|

Chorus is a variation on above
            
Hard to play? Try these video lessons and learn fast. | Correct




comments powered by Disqus
↑ Back to top | Tablatures and chords are parodies/interpretations of the original songs. You may use it for private study, scholarship, research or language learning purposes only