» » »

This Love Tabs (ver.1)

Artists:  A B C D E F G H I J K L M N O P Q R S T U V W X Y Z # 

This Love Tabs (ver.1)

Maroon 5
Rating:
0/5 (0 votes)

Hard to play? Try these video lessons and learn fast.
                standard tuning
x=scratch
~=let it ring

Intro:
e|-----------------------------------------|
b|-----------------------------------------|
g|-----------------------------------------|
d|-----------------------------------------|
a|---------5-------10-9-8----8-6-5---------|
E|-7----7----8------------------------4--6-|

Verse:
e|--3xx-3xx-3x3-3x3--3xx-3xx-3x3-3x3---8xx--8xx--8x-8--8x-8--3xx-3xx-3x3-3x3--|
b|--3xx-3xx-3x3-3x3--4xx-4xx-4x4-4x4---9xx--9xx--9x-9--9x-9--3xx-3xx-3x3-3x3--|
g|--4xx-4xx-4x4-4x4--3xx-3xx-3x3-3x3---8xx--8xx--8x-8--8x-8--4xx-4xx-4x4-4x4--|
d|--3xx-3xx-3x3-3x3--5xx-5xx-5x5-5x5--10xx-10xx-10x10-10x10--3xx-3xx-3x3-3x3--|
a|--5xx-5xx-5x5-5x5--3xx-3xx-3x3-3x3---8xx--8xx--8x-8--8x-8--5xx-5xx-5x5-5x5--|
E|--3xx-3xx-3x3-3x3------------------------------------------3xx-3xx-3x3-3x3--|
    G7               Cm7               Fm7                   G7  

Chorus:
e|--3-3-x3-x3----8--8--x8--x8---6-6-x6-x6---6-6-x6-x66666-5555--|
b|--4-4-x4-x4----9--9--x9--x9---6-6-x6-x6---8-8-x8-x88888-7777--|
g|--3-3-x3-x3----8--8--x8--x8---7-7-x7-x7---8-8-x8-x88888-7777--|
d|--5-5-x5-x5---10-10--x10-x10--6-6-x6-x6---8-8-x8-x88888-7777--|
a|--3-3-x3-x3----8--8--x8--x8---8-8-x8-x8---6-6-x6-x66666-5555--|
E|------------------------------6-6-x6-x6-----------------------|
    Cm7          Fm7            Bb7         Eb   

Bridge:
e|--8~---6~---3~---3~----|
b|--9~---8~---3~---4~----|
g|--8~---8~---4~---3~----|
d|-10~---8~---2~---5~----|
a|--8~---6~---5~---3~----|
E|------------3~---------|
   Fm7   Eb   G7   Cm7 
e|--8~---6~---3~---3~----|
b|--9~---8~---3~---3~----|
g|--8~---8~---4~---4~----|
d|-10~---8~---2~---2~----|
a|--8~---6~---5~---5~----|
E|------------3~---3~----|
   Fm7   Eb   G7   Cm7
            
Hard to play? Try these video lessons and learn fast. | Correct




comments powered by Disqus
↑ Back to top | Tablatures and chords are parodies/interpretations of the original songs. You may use it for private study, scholarship, research or language learning purposes only