» » »

She Will Be Loved Tabs (ver.1)

Artists:  A B C D E F G H I J K L M N O P Q R S T U V W X Y Z # 

She Will Be Loved Tabs (ver.1)

Maroon 5
Rating:
0/5 (0 votes)

Hard to play? Try these video lessons and learn fast.
                this tab is tuned to Eb and as follows:
         Eb Ab Db Gb Bb Eb

Well this is my first tab so here it goes......

---------5--5--5---5--5--------------------------------------
---------6--6--6---6--6--------------4--4-4----------------      10x =verses
---------6--6--6---6--6--------------4--4-4----------------
---------4--4--4---4--4--------------2--2-2----------------


CHORUS  (listen to song for chord progression)

----------------------------------                          
-----------------------------------                                
----9-------8-----9-----6-------                                             
----9-------9-----11---7-------      2x                                          
----7-------9-----11---7--------                                                       
-------------7-----9-----5------- 

--------------------------   
---------------5---------
----4----4----6----2---    
----2----4----6----2---      2x   
----2----2----4---------
--------------------------         


ending-----repeat first part of chorus  2x
            
Hard to play? Try these video lessons and learn fast. | Correct




comments powered by Disqus
↑ Back to top | Tablatures and chords are parodies/interpretations of the original songs. You may use it for private study, scholarship, research or language learning purposes only