» » »

Maroon 5, She Will Be Loved Tabs (ver.3)

Artists:  A B C D E F G H I J K L M N O P Q R S T U V W X Y Z # 

She Will Be Loved Tabs (ver.3)

Maroon 5 Tabs
 Rating:
4/5 (4 votes)
She Will Be Loved lessons Tabs too difficult? Try these video lessons and learn fast
                Pretty easy song, it took me a few minutes to figure out...the only part i don't
have is a bridge after the 2nd chorus...im not sure but i just keep playing as if
it were a verse .. anyways here it is

-----------------------------
Key:
( ) - play it but barely (softly)
x  -  mute 
-----------------------------

-----------------------------
Note: Play each section however much is needed, look at the outline
at the bottom for a ruff estimate as to when to start and stop.
-----------------------------


Intro/Verse/Bridge:

E---(3)--3---3---3---3--------(6)---6---6---6---6--
B---(4)--4---4---4---4--------(6)---6---6---6---6--
G---(5)--5---5---5---5--------(7)---7---7---7---7--    
D----5--(5)-(5)-(5)-(5)-------(8)---8---8---8---8--
A----3--(3)-(3)-(3)-(3)--------8---(8)-(8)-(8)-(8)-
E----x---x---x---x---x---------6---(6)-(6)-(6)-(6)-  



Chorus:

E------------------------(6)-(6)-(6)-(6)-(6)-(6)-(6)-(6)----
B------------------------(6)-(6)-(6)-(6)-(6)-(6)-(6)-(6)----
G---8-8-8-8-8-8-8-8-------7---7---7---7---7---7---7---7-----
D---8-8-8-8-8-8-8-8--(0)--8---8---8---8---8---8---8---8-----
A---6-6-6-6-6-6-6-6--(0)--8---8---8---8---8---8---8---8-(0)-
E---x-x-x-x-x-x-x-x-------6---6---6---6---6---6---6---6-(0)-


E---(3)-(3)-(3)-(3)-(3)-(3)-(3)-(3)------(4)-(4)-(4)-(4)-(4)-(4)-(4)-(4)----
B---(4)-(4)-(4)-(4)-(4)-(4)-(4)-(4)------(4)-(4)-(4)-(4)-(4)-(4)-(4)-(4)----
G----5---5---5---5---5---5---5---5--------5---5---5---5---5---5---5---5-----
D----5---5---5---5---5---5---5---5--(0)---6---6---6---6---6---6---6---6-----
A----3---3---3---3---3---3---3---3--(0)---6---6---6---6---6---6---6---6-(0)-
E----x---x---x---x---x---x---x---x--------4---4---4---4---4---4---4---4-(0)-



Outline:

Intro  - Starts at (0:00)   Ends at (0:10)
Verse  - Starts at (0:11)   Ends at (0:47)
Chorus - Starts at (0:48)   Ends at (1:16)
Verse  - Starts at (1:18)   Ends at (1:55)
Chorus - Starts at (1:56)   Ends at (2:33)
Bridge - Starts at (2:34)   Ends at (2:53)
Verse  - Starts at (2:57)   Ends at (3:04)
Chorus - Starts at (3:06)   Ends at (4:03)

-----------------------
Remember, the bridge im not sure about but its as close as im gonna get to, and
if you have a problem with that then go ahead and tab its yourself you dang lazy
monkey shyt  =)
-----------------------
            
Submit corrections

comments powered by Disqus
↑ Back to top | Maroon 5 Tabs for She Will Be Loved. Lyrics for acoustic guitar and electric guitar. Tablatures and chords are parodies/interpretations of the original songs. You may use it for private study, scholarship, research or language learning purposes only