» » »

Maroon 5, Payphone Tabs (ver.2)

Artists:  A B C D E F G H I J K L M N O P Q R S T U V W X Y Z # 

Payphone Tabs (ver.2)

Maroon 5 Tabs
Rating:
0/5 (0 votes)
Payphone lessons Tabs too difficult? Try these video lessons and learn fast
                 I learned this song basically by listening to it and playing by ear and i think 
its 99.9% accurate so have fun playing.
 
 (*) = Hold Note
 (\) = Slide Down
 
 Tuning: Regular
 
 No Capo

 If you wanna use chords with this it's basically Cadd9,G,Em,and Dsus2   
 with a capo on the 4th fret.

(intro/chorus)

E|-----------9*--7*--7\6-------------------------------------|
B|--4--5--7-------------7--5--5--5\4--0--5--4--2--0--4--2*---|
G|-----------------------------------------------------------|
D|-----------------------------------------------------------|
A|-----------------------------------------------------------|
E|-----------------------------------------------------------|x2

 I'm at a payphone trying to call home
 All of my change I spent on you
 Where have the times gone, baby it's all wrong
 Where are the plans we made for two?

(verse 1)

E|--------------------------------------------------------------------------------|
B|--0--0--7--7--7--4--2--2--7--7--7--4--4--7--7--7--4--4--2--7--7--7--9--4--4-----|
G|--------------------------------------------------------------------------------|
D|--------------------------------------------------------------------------------|
A|--------------------------------------------------------------------------------|
E|--------------------------------------------------------------------------------|

 Yeah, I, I know it's hard to remember,
 The people we used to be...
 It's even harder to picture,
 That you're not here next to me.

E|--------------------------------------------------------------------------|
B|--7--7--7--4--4--2--7--7--7--4--4--7--7--7--4--4--2--5--4--0--5--4--2--4--|
G|--------------------------------------------------------------------------|
D|--------------------------------------------------------------------------|
A|--------------------------------------------------------------------------|
E|--------------------------------------------------------------------------|

 You say it's too late to make it,
 But is it too late to try?
 And in our time that you wasted
 All of our bridges burned down.

(pre-chorus)

E|-----------------------------------------------------------------|
B|--4--4--4--4--2--4--4--4--4--2--4--4--4--5--4--2--2--0--2--7--4--|
G|-----------------------------------------------------------------|
D|-----------------------------------------------------------------|
A|-----------------------------------------------------------------|
E|-----------------------------------------------------------------|

 I've wasted my nights,
 You turned out the lights
 Now I'm paralyzed,
 Still stuck in that time,

E|-------------------------------------------------|
B|--4--4--4--2-4--4--4--4--4--2--4--4--4--5--4--2--|
G|-------------------------------------------------|
D|-------------------------------------------------|
A|-------------------------------------------------|
E|-------------------------------------------------|

 When we called it love,
 But even the sun sets in paradise.

(chorus 2)

E|-----------9*--7*--7\6-------------------------------------|
B|--4--5--7-------------7--5--5--5\4--0--5--4--2--0--4--2*---|
G|-----------------------------------------------------------|
D|-----------------------------------------------------------|
A|-----------------------------------------------------------|
E|-----------------------------------------------------------|x2

 I'm at a payphone trying to call home
 All of my change I spent on you
 Where have the times gone, baby it's all wrong
 Where are the plans we made for two?


E|-----------------------------------------------------------|
B|--0--4--5--4--2--2--0--0--2--4--4--5--4--2--2--0--0--7--2--|
G|-----------------------------------------------------------|
D|-----------------------------------------------------------|
A|-----------------------------------------------------------|
E|-----------------------------------------------------------|x2
 
 If "Happy Ever After" did exist,
 I would still be holding you like this 
 All those fairy tales are full of sh*t
 One more f**king love song, I'll be sick.

(verse 2)

E|--------------------------------------------------------------------------------|
B|--------7--7--7--4--2--2--7--7--7--4--4--7--7--7--4--2--2--7--7--7--9--4--4-----|
G|--------------------------------------------------------------------------------|
D|--------------------------------------------------------------------------------|
A|--------------------------------------------------------------------------------|
E|--------------------------------------------------------------------------------|

 Oh, you turned your back on tomorrow
 'Cause you forgot yesterday.
 I gave you my love to borrow,
 But you just gave it away.

E|--------------------------------------------------------------------------|
B|--7--7--7--4--2--2--7--7--7--4--4--7--7--7--4--4--2--5--4--0--5--4--2--4--|
G|--------------------------------------------------------------------------|
D|--------------------------------------------------------------------------|
A|--------------------------------------------------------------------------|
E|--------------------------------------------------------------------------|

 You can't expect me to be fine,
 I don't expect you to care
 I know I've said it before,
 But all of our bridges burned down

(pre-chorus)

E|-----------------------------------------------------------------|
B|--4--4--4--4--2--4--4--4--4--2--4--4--4--5--4--2--2--0--2--7--4--|
G|-----------------------------------------------------------------|
D|-----------------------------------------------------------------|
A|-----------------------------------------------------------------|
E|-----------------------------------------------------------------|

 I've wasted my nights,
 You turned out the lights
 Now I'm paralyzed,
 Still stuck in that time,

E|-------------------------------------------------|
B|--4--4--4-4--2--4--4--4--4--2--4--4--4--5--4--2--|
G|-------------------------------------------------|
D|-------------------------------------------------|
A|-------------------------------------------------|
E|-------------------------------------------------|

 When we called it love,
 But even the sun sets in paradise.

(chorus 2)

E|-----------9*--7*--7\6-------------------------------------|
B|--4--5--7-------------7--5--5--5\4--0--5--4--2--0--4--2*---|
G|-----------------------------------------------------------|
D|-----------------------------------------------------------|
A|-----------------------------------------------------------|
E|-----------------------------------------------------------|x2

 I'm at a payphone trying to call home
 All of my change I spent on you
 Where have the times gone, baby it's all wrong
 Where are the plans we made for two?


E|-----------------------------------------------------------|
B|--0--4--5--4--2--2--0--0--2--4--4--5--4--2--2--0--0--7--2--|
G|-----------------------------------------------------------|
D|-----------------------------------------------------------|
A|-----------------------------------------------------------|
E|-----------------------------------------------------------|x2
 
 If "Happy Ever After" did exist,
 I would still be holding you like this 
 All those fairy tales are full of sh*t
 One more f**king love song, I'll be sick.

E|--------------------|
B|--0--4--5--4--2--0--|
G|--------------------|
D|--------------------|
A|--------------------|
E|--------------------|

 Now i'm at a payphone.

That's it please rate this tab for me and tell me in the comments if their is 
something wrong or if any changes need to be made thanks.
            

comments powered by Disqus
↑ Back to top | Maroon 5 Tabs for Payphone. Lyrics for acoustic guitar and electric guitar. Tablatures and chords are parodies/interpretations of the original songs. You may use it for private study, scholarship, research or language learning purposes only