» » »

Kiwi Bass tabs (ver.1)

Artists:  A B C D E F G H I J K L M N O P Q R S T U V W X Y Z # 

Kiwi Bass tabs (ver.1)

Maroon 5
Rating:
0/5 (0 votes)

Hard to play? Try these video lessons and learn fast.
                Verse and Chorus:

G|-------------------------------------------------------------------|
D|-------------------------------------------------------------------|
A|------7--5-5--7--5-5--7--7---5-7-5---------------------------------|
E|--0----------------------------------------------------------------|


Pre chorus:

G|-------------------------------------------------------------------|
D|-------------------------------------------------------------------|
A|--7-7-------5-5----------------------------------------------------|
E|-------7-7-------5-5-----------------------------------------------|

Bridge:

G|---------------------------------------------------------------------------|
D|---------------------------------------------------------------------------|
A|-7--7--7-7---------------10--10--10-10-------------------------------------|
E|-------------8--8--8-8--------------------7--7--7-7------------------------|


Solo:
G|------------------------------------------------------------|
D|------------------------------------------------------------|
A|------7--5-5--7--5-5--7--5--7-------------------------------|
E|--0---------------------------------------------------------|
            
Hard to play? Try these video lessons and learn fast. | Correct




comments powered by Disqus
↑ Back to top | Tablatures and chords are parodies/interpretations of the original songs. You may use it for private study, scholarship, research or language learning purposes only