» » »

Maroon 5, Give A Little More Tabs (ver.3)

Artists:  A B C D E F G H I J K L M N O P Q R S T U V W X Y Z # 

Give A Little More Tabs (ver.3)

Maroon 5 Tabs
 Rating:
4.3/5 (6 votes)
Give A Little More lessons Tabs too difficult? Try these video lessons and learn fast
                Hey this is my first tab:) hope its okay, figured it out mainly by ear including the 
intro so sorry if its a bit off, let me know ways to improve it if needed at 

MAROON 5 - GIVE A LITTLE MORE

STANDARD TUNING

(you can add a few muted strums if you wish, if you listen to the original track you 
will figure out the main strumming pattern)


Intro: e--8-10--8-8-10--8--------8-10--8-8-10-8-10-8--x-x------|
       b--8-8---8-8-8---8---9b---8-8---8-8-8--8-8--8--x-x------|
       g-------------------------------------------------------|
       d-------------------------------------------------------|
       a-------------------------------------------------------|
       E-------------------------------------------------------|

       e--8-10--8-8-10--8----------8-10--8----13--10\----------|
       b--8-8---8-8-8---8-----9b---8--8--8----12--9\-----------|
       g-------------------------------------------------------|
       d-------------------------------------------------------|
       a-------------------------------------------------------|
       E-------------------------------------------------------|



Verse:(DM and GM BAR CHORDs) Palm Mute - Funky Strumming

       e---------------------------------------------------|
       b-----------6--x-x-----------6-6--------------------|
       g------7-7--7--x-x----7-7-7--7-7----x4--------------|
       d------7-7--7--x-x----7-7-7--7-7--------------------|
       a----5-5-5--5--x-x--5-5-5-5--5-5--------------------|
       E---------------------------------------------------|


       e---------------------------------------------------|
       b-------------11--x-x------------11-----------------|
       g------12-12--12--x-x-----12-12--12------x2---------|
       d------12-12--12--x-x-----12-12--12-----------------|
       a---10-10-10--10--x-x--10-10-10--10-----------------|
       E---------------------------------------------------|


PRE-CHORUS AND CHORUS:  Funky Strumming Pattern - They are the basic chords, fiddle 
around with them and you should get it just right


       e----5-5-x-5--5--x-x--3-3-x-3--3-------------------|
       b----6-6-x-6--6--x-x--3-3-x-3--3-------------------|
       g----7-7-x-7--7--x-x--3-3-x-3--3-------------------|
       d----7-7-x-7--7--x-x--5-5-x-5--5-------------------|
       a----5-5-x-5--5--x-x--5-5-x-5--5-------------------|
       E----x-x-x-x--x--x-x--3-3-x-3--3-------------------|


       e----6-6-x-6--6--x-x--5-5-x-5-x-5------------------|
       b----6-6-x-6--6--x-x--5-5-x-5-x-5------------------|
       g----7-7-x-7--7--x-x--6-6-x-6-x-6------------------|
       d----8-8-x-8--8--x-x--7-7-x-7-x-7------------------|
       a----8-8-x-8--8--x-x--7-7-x-7-x-7------------------|
       E----6-6-6-6--6--x-x--5-5-x-5-x-5------------------|


CHORUS OUTRO:

       e--8-10--8-8-10--8----------8-10--8----13--10\----------|
       b--8-8---8-8-8---8-----9b---8--8--8----12--9\-----------|
       g-------------------------------------------------------|
       d-------------------------------------------------------|
       a-------------------------------------------------------|
       E-------------------------------------------------------|

VERSE:
       e---------------------------------------------------|
       b-----------6--x-x-----------6-6--------------------|
       g------7-7--7--x-x----7-7-7--7-7----x4--------------|
       d------7-7--7--x-x----7-7-7--7-7--------------------|
       a----5-5-5--5--x-x--5-5-5-5--5-5--------------------|
       E---------------------------------------------------|


       e---------------------------------------------------|
       b-------------11--x-x------------11-----------------|
       g------12-12--12--x-x-----12-12--12------x2---------|
       d------12-12--12--x-x-----12-12--12-----------------|
       a---10-10-10--10--x-x--10-10-10--10-----------------|
       E---------------------------------------------------|


I know the rhythm is a bit off, but once you listen to the song it should be pretty 
basic, dont be too harsh first tab:) peace out:D
            
Submit corrections

comments powered by Disqus
↑ Back to top | Maroon 5 Tabs for Give A Little More. Lyrics for acoustic guitar and electric guitar. Tablatures and chords are parodies/interpretations of the original songs. You may use it for private study, scholarship, research or language learning purposes only