>
 >
Cant Stop Intro

Cant Stop Intro Guitar Tabs

Maroon 5 - Cant Stop Intro chords, tabs, tablatures, lyrics

Guitar lessons | Add/correct | Request | Top 50 tabs Artists:  A B C D E F G H I J K L M N O P Q R S T U V W X Y Z 0-9

Cant Stop Intro Guitar Tabs – Maroon 5

CD, Sheet music, Poster

Do you like Cant Stop Intro? Share with your friends now
Tabs
-----------------------------------------------------------------------------
                             Can't Stop - Maroon 5
-----------------------------------------------------------------------------

This is my first tab.

Heres the intro the other version is wrong ..
I also added part of the chorus.Im not 100% sure if it is correct but it sounds good to 
some disortion and listen to the song for timing.


Tuning:Standard (Arent they all...)

e|--------------------------------------------------------------------------|
B|--------------------------------------------------------------------------|
G|--------------------------------------------------------------------------|
D|--------------------------------------------------------------------------|
A|--------------------------------------------------------------------------|
E|--5--8-8--5--7-----5--8-8-5-7--4-4-------5--8-8--5--7----5--8-8--5--7--4--|


e|--------------------------------------------------------------------------|
B|--------------------------------------------------------------------------|
G|--------------------------------------------------------------------------|
D|--------------------------------------------------------------------------|
A|--------------------------------------------------------------------------|
E|--5--8-8--5--7----5--8-8--5--7---5--8-8--5--7----5--8-8--5--7--4--4-------|

e|--------------------------------------------------------------------------|
B|--------------------------------------------------------------------------|
G|--------------------------------------------------------------------------|
D|--------------------------------------------------------------------------|
A|--------------------------------------------------------------------------|
E|--5--8-8--5--7----5--8-8--5--7---5--8-8--5--7-----5--8-8--5--7------------|


(Part of Chorus) Sounds good to me ..


e|----------------------------------------------------------------------------|
B|----------------------------------------------------------------------------|
G|----------------------------------------------------------------------------|
D|--9---9/10\9/10----10\6---6/9---9\7---7-------------------------------------|
A|--x---x/x\-x/x------x\x---x/x---x\x---x-------------------------------------|
E|--7---7/8\-7/8------8\4---4/7---7\5---5-------------------------------------|X2


Thats my first tab be nice!


| /  slide up
| \  slide down
| h  hammer-on
| p  pull-off
| ~  vibrato
| +  harmonic
| x  Mute note
=============================================================================





Comments


Popular Maroon 5 tabs & chords
If I Ain't Got You Chords
No Curtain Call 1 Chords
Out Of Goodbyes 3 Chords
Harder To Breathe Drum Tabs
Harder To Breathe 3 Tabs
Harder To Breathe 5 Tabs
Kiwi 1 Tabs
Sunday Morning 6 Tabs
Christmas Cheer Ukulele
Moves Like Jagger Ukulele


Song lyrics



↑ Back to top | Tablatures and chords are parodies/interpretations of the original songs. You may use it for private study, scholarship, research or language learning purposes only
© 2014 AZChords.com Contact us | Privacy policy | DMCA | Add/correct tabs | Request tabs | Top 50 tabs