>
 >
So Youre Afraid 2

So Youre Afraid 2 Guitar Tabs

Mark Tremonti - So Youre Afraid 2 chords, tabs, tablatures, lyrics

Guitar lessons | Add/correct | Request | Top 50 tabs Artists:  A B C D E F G H I J K L M N O P Q R S T U V W X Y Z 0-9

So Youre Afraid 2 Guitar Tabs – Mark Tremonti

CD, Sheet music, Poster

Do you like So Youre Afraid 2? Share with your friends now
TabsTabs v2Tabs v3
-------------------------------------------------------------------------------
                             So You're Afraid - Tremonti
-------------------------------------------------------------------------------

Tuning: Drop C# (C# G# C# F# A# D#)

Both Guitars (Main Riff/Intro Riff)

D#|---------------------------------------------------------------------------|
A#|---------------------------------------------------------------------------|
F#|---------------------------------------------------------------------------|
C#|---------------------------------------------------------------------------|
G#|-5-4-5-------3-2-3-------1-0-1-------1-0-----------------------------------|
C#|-------0-0-0-------0-0-0-------0-0-0-----0-0-0-0-000-0-0-000-0-0-----------|

Lead Guitar (Verse)

D#|-----5-----8-----6-----5-----|
A#|-5h7---5h7---5h7---5h7-------|
F#|-----------------------------|  ( X 4 )
C#|-----------------------------|
G#|-----------------------------|
C#|-----------------------------|

Rhythm (Verse)

D#|---------------|
A#|---------------|
F#|-------3-------| ( X 4 )
C#|-0-----3--3----|
G#|-0-----1--3----|
C#|-0--------3----|

Both Guitars (Pre-Chorus)

D#|-----------------------------------------------------------|
A#|-----------------------------------------------------------|
F#|-----------------------------------------------------------|  ( X 2 )
C#|-14---------14-5-5-------------10---------10-5-5-5-5s7s5---|
G#|-12---------12-3-3-------------8----------8--3-3-3-3s5s3---|
C#|-12-0-0-0-0-12-3-3-0-0-000-0-0-8--0-0-0-0-8--3-3-3-3s5s3---|

Guitar 1 (Chorus)

D#|------------------------------------------------------------------------------------|
A#|------------------------------------------------------------------------------------|
F#|----------------------------------------------------------------14----------14------|
C#|--12-12--12-12-12-12-12-12-x-x-10-10--10-10-10-10-10-10---12-12----12-12-12----12---|
G#|--10-10--10-10-10-10-10-10-x-x-8--8---8--8--8--8--8--8----12----------10------------|
C#|--10-10--10-10-10-10-10-10-x-x-8--8---8--8--8--8--8--8----12----------10------------|


D#|------------------------------------------------------------|
A#|------------------------------------------------------------|
F#|------------------------------------------------------------|
C#|--12-12-12-12-12-12-12-12-12/14-14-14-14-14-14-14-----------|
G#|--12-12-12-12-12-12-12-12-12/14-14-14-14-14-14-14-----------|
C#|--12-12-12-12-12-12-12-12-12/14-14-14-14-14-14-14-----------|

                              ( X 2 )  Then on the third one :

D#|----------------------------------|
A#|----------------------------------|
F#|----------------------------------|
C#|--12-12--12-12-12-12-12-12-x-x-10-|      Hold the last note.
G#|--10-10--10-10-10-10-10-10-x-x-8--|
C#|--10-10--10-10-10-10-10-10-x-x-8--|


Guitar 2 (Chorus)

D#|--------------------------------------------------------------------------|
A#|--------------------------------------------------------------------------|
F#|--9-9--9-9-9-9-9-9-9-9-7-7--7-7-7-7-7-7-7-7--x-x--10-10-10-10-10-10-10-10-|
C#|--x-x--x-x-x-x-x-x-x-x-x-x--x-x-x-x-x-x-x-x--x-x--x--x--x--x--x--x--x--x--|
G#|--7-7--7-7-7-7-7-7-7-7-5-5--5-5-5-5-5-5-5-5--x-x--8--8--8--8--8--8--8--8--|
C#|--------------------------------------------------------------------------|

D#|---------------------------------------------------|
A#|---------------------------------------------------|
F#|--9-9-9-9-9-9-9-9-7-7-7-7-7-7-7-7s9-9-9-9-9-9-9-9--|
C#|--x-x-x-x-x-x-x-x-x-x-x-x-x-x-x-xsx-x-x-x-x-x-x-x--|
G#|--7-7-7-7-7-7-7-7-5-5-5-5-5-5-5-5s7-7-7-7-7-7-7-7--|
C#|---------------------------------------------------|


                              ( X 2 )  Then on the third one :

D#|--------------------------|
A#|--------------------------|
F#|--9-9--9-9-9-9-9-9-9-9-10-|
C#|--x-x--x-x-x-x-x-x-x-x-x--|        Hold the last note.
G#|--7-7--7-7-7-7-7-7-7-7-8--|
C#|--------------------------|

 Both Guitars (Bridge)

*Not sure about the exact number of 0s in this part so give or take a few and play 
whatever sounds right

D#|------------------------------------------------------------------------------------|
A#|------------------------------------------------------------------------------------|
F#|------------------------------------------------------------------------------------|
C#|------------------------------------------------------------------------------------|
G#|--5-----5h6\3-----------------------------------------------------------------------|
C#|---0-0-0------0-0-9h10\7-0-0-0--3-3-3-3-3-3-5-5-2-2-2-2-2-2-2-2---------------------|
                                   (very fast tremolo picking here)
D#|------------------------------------------------------------------------------------|
A#|------------------------------------------------------------------------------------|
F#|------------------------------------------------------------------------------------|
C#|------------------------------------------------------------------------------------|
G#|--5-----6h8\5-----5p4p5-------------------------------------------------------------|
C#|---0-0-0------0-0-------0-0-0--3-3-3-3-3-3-5-5-2-2-2-2-2-2-2-2----------------------|
                                  (very fast tremolo picking here)

     The Rhythm for the solo is the same as the Bridge riff.
     *Not worked out the solo yet, but will upload a seperate solo tab when I do.

    Thats all the riffs, after the solo it goes to the Chorus which is played 4 times,
    then back to the Main Riff played 4 times and thats it.

     -I will be uploading a cover when i get round to it so be sure to subscribe to look 
out for that!

************************************

| /   slide up
| \   slide down
| h   hammer-on
| p   pull-off
| ~   vibrato
| +   harmonic
| x   Mute note
| b   Bend
| pb  Pre-bend
| br  Bend release
| pbr Pre-bend release
| brb Bend release bend

************************************





Comments


Popular Mark Tremonti tabs & chords
New Way Out Chords
All I Was Intro Tabs
All That I Got Tabs
Brains Intro Tabs
Decay Tabs
Decay Intro Tabs
Doesnt Matter Tabs
Wish You Well Tabs
You Waste Your Time 1 Tabs
New Way Out Ukulele


Song lyrics



↑ Back to top | Tablatures and chords are parodies/interpretations of the original songs. You may use it for private study, scholarship, research or language learning purposes only
© 2014 AZChords.com Contact us | Privacy policy | DMCA | Add/correct tabs | Request tabs | Top 50 tabs