>
 >
So Youre Afraid 1

So Youre Afraid 1 Guitar Tabs

Mark Tremonti - So Youre Afraid 1 chords, tabs, tablatures, lyrics

Guitar lessons | Add/correct | Request | Top 50 tabs Artists:  A B C D E F G H I J K L M N O P Q R S T U V W X Y Z 0-9

So Youre Afraid 1 Guitar Tabs – Mark Tremonti

CD, Sheet music, Poster

Do you like So Youre Afraid 1? Share with your friends now
TabsTabs v2Tabs v3
-----------------------------------------------------------------------------
                        So You're Afraid - Tremonti
-----------------------------------------------------------------------------

Tuning: Drop C# (Low to high: Dd - Ab - Db - Gb - Bb - Eb)
4/4 Time

Rate and comment please :)


Intro (Main Riff)

   Guitar1 + Guitar2
eb|---------------------------------|---------------------------------|
Bb|---------------------------------|---------------------------------|
Gb|---------------------------------|---------------------------------|
Db|---------------------------------|---------------------------------| x3
Ab|-5---5-------3---3-------1---1---|-----1-0-------------------------|
Db|---3---0-0-0---2---0-0-0---0---0-|-0-0-----0-0-0-0-000-0-0-000-0-0-|
          * * *       * * *       *   * *       * * * *** * * *** * *

eb|---------------------------------|---------------------------------|
Bb|---------------------------------|---------------------------------|
Gb|---------------------------------|---------------------------------|
Db|---------------------------------|---------------------------------|
Ab|-5---5-------3---3-------1---1---|-----1-0-------------------------|
Db|---3---0-0-0---2---0-0-0---0---0-|-0-0-----0-0-0-0-000-0-0-000-000-|
          * * *       * * *       *   * *       * * * *** * * *** ***


Verse

    Guitar1
|eb|-----------8-|-----6------5~~~~~~~~-------|-----6------5~~~~~~~~-----8-|
|Bb|-------------|--------------|----------8--|--------------|-------------|
|Gb|-7~~~--5h7---|-5h7----5h7---|-------------|-5h7----5h7---|-------5h7---|
|Db|-------------|--------------|-------------|--------------|-------------|
|Ab|-------------|--------------|-------------|--------------|-------------|
|Db|-------------|--------------|-------------|--------------|-------------|
|  |Guitar2      |              |             |              |             |
|eb|-------------|--------------|-------------|--------------|-------------|
|Bb|-------------|--------------|-------------|--------------|-------------|
|Gb|-------------|-3------------|-------------|-3------------|-------------|
|Db|-0-----------|-3-----3------|-0-----------|-3-----3------|-0-----------|
|Ab|-0-----------|-1-----3------|-0-----------|-1-----3------|-0-----------|
|Db|-0-----------|-------3------|-0-----------|-------3------|-0-----------|


    Guitar1
|eb|-----6------5~~~~~~~~-------|-----6~~~~----|
|Bb|--------------|----------8--|--------------|
|Gb|-5h7----5h7---|-------------|-5h7----------|
|Db|--------------|-------------|--------------|
|Ab|--------------|-------------|--------------|
|Db|--------------|-------------|--------------|
|  |Guitar2       |             |              |
|eb|--------------|-------------|--------------|
|Bb|--------------|-------------|--------------|
|Gb|-3------------|-------------|-3------------|
|Db|-3-----3------|-0-----------|-3-----3------|
|Ab|-1-----3------|-0-----------|-1-----3------|
|Db|-------3------|-0-----------|-------3------|



Pre- Chorus

   Guitar1 + Guitar2
eb|-------------------------------|-------------------------------|
Bb|-------------------------------|-------------------------------|
Gb|----------5--------------------|-5--------5--------------------|
Db|-7--------3---5--5-------------|-3--------3---5--5---5/7\5-----| x2
Ab|-5--------1---3--3-------------|-1--------1---3--3---3/5\3-----|
Db|-5--0-0-0---0-3--3-0-0-000-0-0-|----0-0-0---0-3--3-0-3/5\3-0-0-|
       * * *   *      * * *** * *      * * *   *      *       * *


Chorus

   Guitar1
|eb|-------------------------|-------------------------|
|Bb|-------------------------|-------------------------|
|Gb|-9---9--9-9-9-9--9-9-9-9-|\7---7--7-7-7-7--7-7-7-7-|
|Db|-------------------------|-------------------------|
|Ab|-7---7--7-7-7-7--7-7-7-7-|\5---5--5-5-5-5--5-5-5-5-|
|Db|-------------------------|-------------------------|
|  |Guitar2                  |                         |
|eb|-------------------------|-------------------------|
|Bb|-------------------------|-------------------------|
|Gb|-------------------------|-------------------------|
|Db|-10--10-10101010-10101010|-8---8--8-8-8-8--8-8-8-8-|
|Ab|-10--10-10101010-10101010|-8---8--8-8-8-8--8-8-8-8-|
|Db|-10--10-10101010-10101010|-8---8--8-8-8-8--8-8-8-8-|



   Guitar1
|eb|------------------------|--------------------------|
|Bb|------10---------10-----|--------------------------|
|Gb|---10----10---10----10--|-7---7--7-7-7-7/9-9-9-9-9-|
|Db|------------------------|--------------------------|
|Ab|-8----------7-----------|-5---5--5-5-5-5/7-7-7-7-7-|
|Db|------------------------|--------------------------|
|  |Guitar2                 |                          |
|eb|------------------------|--------------------------|
|Bb|------------------------|--------------------------|
|Gb|------------------------|--------------------------|
|Db|-10--10-101010--10-1010-|-0---0--0-12-10-12-121212-|
|Ab|-8---8--8-8-7---7--7-7--|-0---0--0-12-10-12-121212-|
|Db|-8---8--8-8-7---7--7-7--|-0---0--0-12-10-12-121212-|

Play last 4 beats 2 times, then:
    Guitar1          |--3---------------|
|eb|-------------------------|----------|
|Bb|-------------------------|----------|
|Gb|-9---9--9-9-9-9--9-------|----------|
|Db|-------------------------|-10-------|
|Ab|-7---7--7-7-7-7--7-10-10-|-8--------|
|Db|-------------------10-10-|-8--------|
|  |Guitar2            *  *  |                         |
|eb|-------------------------|--------|
|Bb|-------------------------|--------|
|Gb|-------------------------|--------|
|Db|-10--10-10101010-10-10-10|-10-----|
|Ab|-10--10-10101010-10-10-10|-8------|
|Db|-10--10-10101010-10-10-10|-8------|
                        *  *


Main- Riff (x2)



Verse (like before)



Chorus (like before)



Bridge

(One beat before the bridge, there's played the 0th fret of the Db string 2 times 
palm muted: -0-0-)

   Guitar1                            Guitar1 + 2
eb|----------------------------------|--------------------------------|
Bb|----------------------------------|--------------------------------|
Gb|----------------------------------|--------------------------------|
Db|----------------------------------|--------------------------------|
Ab|---------5/6\3--------------------|--------------------------------|
Db|-0-0-0-0-------0-0-0-8/10\7-0-0-0-|33333333333355552222222211111111|
      * * *       * * *        * * *
   Guitar1                            Guitar1 + 2
eb|----------------------------------|--------------------------------|
Bb|----------------------------------|--------------------------------|
Gb|----------------------------------|--------------------------------|
Db|----------------------------------|--------------------------------|
Ab|-5-------1/6\5-------5\3/5--------|------------------------1/6~~~--|
Db|---0-0-0-------0-0-0-------0-0-0--|333333333333555522222222--------|
      * * *       * * *       * * *

Now guitar 1 + 2 play the bridge 1 more time.



Guitar- Solo (w/ Wah)

(Guitar 2 plays the bridge 2 times // Guitar1 does an alternate- picking-  slide on the 
high e- string from the 0th to the 17th fret, before the solo begins)

   Guitar1
eb|2018171817--17--------------------------------------------------|
Bb|----------20--20182018171817--171817--17------------------------|
Gb|----------------------------19------19--19171917--17------------|
Db|------------------------------------------------20--2019201917--|
Ab|--------------------------------------------------------------20|
Db|----------------------------------------------------------------|

                          |-------6-------| |-------6-----------|
eb|-------------------------------------------------------------|
Bb|-----------------------------------------------------15-17---|
Gb|17------------------------------------14----14-15-17---------|
Db|--201917201917---------------14-15-17----17------------------|
Ab|--------------1920~~~--15-17---------------------------------|
Db|-------------------------------------------------------------|

eb|-------------------------------------------|
Bb|-17b17b~~-17b~17br------------13-----------|
Gb|------------------12-14-12-14----12\10~~~--|
Db|-------------------------------------------|
Ab|-------------------------------------------|
Db|-------------------------------------------|

eb|--------------------------------------/10-10-10-|
Bb|-13-13/15-15-15/18-18-18-18-18\17~~~------------|
Gb|------------------------------------------------|
Db|-10-10/12-12-12/15-15-15-15-15\14~~~------------|
Ab|------------------------------------------------|
Db|------------------------------------------------|

eb|-/15/15-15/15-15/15-15/15-13/13-13/13-12-12-1312----|
Bb|------------------------------------------------1513|
Gb|----------------------------------------------------|
Db|----------------------------------------------------|
Ab|----------------------------------------------------|
Db|----------------------------------------------------|

              |-------6-------| |-------6-------| |-------6-----------|
eb|-13~~~--13-17-13----13---------------------------------------------|
Bb|-----------------15----15----13------------------------------------|
Gb|--------------------------14----14-12-14-12----12------------------|
Db|--------------------------------------------15----15-14-15-12------|
Ab|--------------------------------------------------------------15---|
Db|-------------------------------------------------------------------|
           w/ Legato- Picking

eb|------------------------------------------------|
Bb|----------------10--13---13-13------------------|
Gb|----10----------10--12b--12b12brp10--10---------|
Db|-12----12-10-12--------------------12----12~~~--|
Ab|------------------------------------------------|
Db|------------------------------------------------|

eb|---------------------13b~~~--13~~-------10-13/20~~~~~~~--|
Bb|-8/10----13-10-13-10--------------10-13------|-----------|
Gb|------12b------------------------------------|-----------|
Db|---------------------------------------------|-----------|
Ab|---------------------------------------------|-----------|
Db|---------------------------------------------|-----------|



Chorus (x2)



Main Riff (like Intro)



************************************

| /   slide up
| \   slide down
| h   hammer-on
| p   pull-off
| ~   vibrato
| b   Bend
| br  Bend release
| *   Palm-mute

************************************





Comments


Popular Mark Tremonti tabs & chords
All I Was Intro Tabs
All That I Got Tabs
Decay Tabs
Giving Up Tabs
Leave It Alone Tabs
London Bridge Tabs
So Youre Afraid 2 Tabs
The Things Ive Seen 1 Tabs
Wish You Well Tabs
You Waste Your Time Tabs


Song lyrics



↑ Back to top | Tablatures and chords are parodies/interpretations of the original songs. You may use it for private study, scholarship, research or language learning purposes only
© 2014 AZChords.com Contact us | Privacy policy | DMCA | Add/correct tabs | Request tabs | Top 50 tabs