» » »

End Of Me Tabs

Artists:  A B C D E F G H I J K L M N O P Q R S T U V W X Y Z # 

End Of Me Tabs

(ver. 1)
Marion Raven Tabs
 Rating:
4/5 (9 votes)
    End Of Me lessons Tabs too difficult? Try these video lessons and learn fast
                Played in: Standard tuning



Intro
e|------------------------|
B|------------------------|
G|--------4/9-------------|
D|-----2--4/9--5----------| X2
A|-----2--2/7--3----------|
E|-----0-------3----------|


Verse 1
e|------------|
B|------------|		There's no guitar in this part but
G|--------5---|		this is what you can play.
D|-----2--5---| X3
A|-----2--3---|
E|-----0------|
   Hey, stay with me... down to the...
   Hey, I'm afraid... and I might leave here...
e|---------------------|
B|---------------------|
G|---------------------|This--> "|" is WHEN you should strum
D|-----5-------5-5-----|the note. Throughout the entire song 
A|-----5-------5-5-----|the 055 part is strumed only ONCE
E|-----3-------0-2-----|then quickly strum the 255 part.
       |bone
       |alone


Pre-chorus
e|------------------------|
B|------------------------|
G|--------4/9-------------|This is played the same way as
D|-----2--4/9--5----------|the intro.
A|-----2--2/7--3----------|
E|-----0-------3----------|
  This is not a mistake...

e|------------------------|
B|------------------------|
G|-------------------4----|
D|-------------------2----|
A|-------------------2----|
E|------------------------|
  Anything goes from |now


Chorus
e|-----------------------------------------------|
B|-----------------------------------------------|
G|-----------------------------------------------|
D|-------------2-------10------5--------5-----5--|
A|-------------2-------10------5--------5-----5--|
E|-------------0-------8-------3--------0-----2--|
   This is the |laaaaaa|st of i|llusions|     |
   This is the |fi.....|nal   i|nnocence|     |
	If I'm |caught |middle |know	|will |be


e|-------------------------------|
B|-------------------------------|You should strum EACH of the
G|------------7--------5---------|last two notes ONCE in QUICK
D|------------7--------5----2----|succession.
A|------------5--------3----2----|
E|--------------------------0----|
   The end of |meeee...|ee..|ee


Verse 2
e|------------|
B|------------|
G|--------5---|		The intro can be played at the
D|-----2--5---| X3	the same time this is played.
A|-----2--3---|
E|-----0------|
   Hey, talk to me...

e|---------------------|
B|---------------------|
G|---------------------|
D|-----5-------5-5-----|
A|-----5-------5-5-----|
E|-----3-------0-2-----|
       |mouth


Pre-chorus
e|--------------------------|
B|--------------------------|	If you listen carefully to the song
G|--------4/9---------------|	there is no guitar for this part but
D|-----2--4/9--5------------|	unless you have a violin you can play
A|-----2--2/7--3------------|	this part anyway.
E|-----0-------3------------|
  Cause this is not about hate...

e|--------------------------|
B|--------------------------|
G|---------------------4----|
D|---------------------4----|
A|---------------------2----|
E|--------------------------|
  Everything goes from |now


Chorus
e|----------------------------------------------------------|
B|----------------------------------------------------------|
G|----------------------------------------------------------|
D|-------------2-------10------5--------5-----5-------------|
A|-------------2-------10------5--------5-----5-------------|
E|-------------0-------8-------3--------0-----2-------------|
   This is the |laaaaaa|st of i|llusions|     |
   This is the |fi.....|nal   i|nnocence|     |
	If I'm |caught |middle |know	|will |be


e|-------------------------------|
B|-------------------------------|	You should strum EACH of the
G|------------7--------5---------|	last two notes ONCE in QUICK
D|------------7--------5----2----|	succession.
A|------------5--------3----2----|
E|--------------------------0----|
   The end of |meeee...|ee..|ee


e|------------------------|
B|------------------------|
G|--------4/9-------------|
D|-----2--4/9--5----------|
A|-----2--2/7--3----------|
E|-----0-------3----------|
   This is not a mistake
   The dawn of a new day, yeah... (this is not a mistake)


(Some violin part, beautiful)


e|---7---7---7---7---7---7---5---5--------|
B|-----5---5---5---5---3---3---3---3------|This is not a guitar part
G|----------------------------------------|but I made this up.
D|----------------------------------------|It sounds really cool.
A|----------------------------------------|
E|----------------------------------------|


e|---------------------------|
B|---------------------------|
G|---------5-----------------|
D|--2------5----5----5-5-----|
A|--2------3----5----5-5-----|
E|--0-----------3----0-2-----|
    |Hey        |me


Chorus
e|-------------------------------------------------|
B|-------------------------------------------------|
G|-------------------------------------------------|
D|-------------2-------10------5--------5-----5----|
A|-------------2-------10------5--------5-----5----|
E|-------------0-------8-------3--------0-----2----|
   This is the |laaaaaa|st of i|llusions|     |
   This is the |fi.....|nal   i|nnocence|     |
	If I'm |caught |middle |know	|will |be


e|-------------------------------------------------|
B|-------------------------------------------------|
G|------------------------------5-------------5----|
D|----2-------10------5---------5---5---------5----|
A|----2-------10------5---------3---5---------3----|
E|----0-------8-------3-------------3--------------|
      |last          i|llusion     i|llusion

e|-------------------------------------------------|
B|-------------------------------------------------|
G|-------------------------------------------------|
D|-------------2-------10------5--------5-----5----|
A|-------------2-------10------5--------5-----5----|
E|-------------0-------8-------3--------0-----2----|
   This is the |fi.....|nal   i|nnocence|     |
	If I'm |caught |middle |know	|will |be


e|--------------------------------|
B|--------------------------------|You should strum EACH of the
G|------------7--------5----------|last two notes ONCE in QUICK
D|------------7--------5----2-----|succession.
A|------------5--------3----2-----|
E|--------------------------0-----|
   The end of |meeee...|ee..|ee


------------------------------------------------------------------
OK that's it. This tab might not be 100% accurate. And there's 
this part from 4:07 until fade I didn't tab. Before any of you 
flame me maybe you should know this is my first ever tab. Oh yeah,
please vote if you think my tab is alright.
            
Submit corrections

↑ Back to top | Marion Raven Tabs for End Of Me. Lyrics for acoustic guitar and electric guitar. Tablatures and chords are parodies/interpretations of the original songs. You may use it for private study, scholarship, research or language learning purposes only