>
 >
End Of Me

End Of Me Chords

Marion Raven - End Of Me chords, tabs, tablatures, lyrics

Guitar lessons | Add/correct | Request | Top 50 tabs Artists:  A B C D E F G H I J K L M N O P Q R S T U V W X Y Z 0-9

End Of Me Chords – Marion Raven

CD, Sheet music, Poster

Do you like End Of Me? Share with your friends now
ChordsTabsUkulele
Marion Raven - End Of Me


Cadd9 - x32033 

Bm/D means u can either play Bm or D..both sounds ok for that part.


Intro: Em - Bm slide to Em - G         

e|-----------------------------------|
B|-----------------------------------|
G|-----------4/9-9-9-----------------|
D|--2-2-2-2--4/9-9-9--5-5-5-5-5-5-5--|  x2
A|--2-2-2-2--2/7-7-7--3-3-3-3-3-3-3--|
E|--0-0-0-0-----------3-3-3-3-3-3-3--|


Verse:
Em    Cadd9
Hey
          Em
Stay with me
Cadd9                Em
As I'm getting naked
Cadd9                G        Bm/D  (D works too but the base is B, ill leave it as Bm/D
Stripped down to the bone           only for verses u can interchange)

Em    Cadd9
Hey
        Em
I'm afraid
Cadd9                Em   
This could get ugly
      Cadd9             G     Bm/D
And I might leave here alone


Prechorus:
Em   Cadd9
     This is not a mistake
Em            Cadd9
     It's the dawn of a new day
Em   Cadd9                G     Bm 
     Everything goes from now


Chorus:
Em           Cadd9    G        Bm/D
This is the last of illusions
Em            Cadd9        G   Bm/D
This is the final trace of innocence
       Em            Cadd9
If I'm caught in the middle
  G            D             Bm    C    Em
I know it will be the end of me


Verse:
Em    Cadd9
Hey
        Em
Talk to me
      Cadd9                   Em
Don't play me with your silence
Cadd9            G        Bm/D
Whisper it in my mouth


Prechorus:
Em         Cadd9
     Cause this is not about hate
Em            Cadd9
     It's the start of a new way
Em   Cadd9                G      Bm
     Everything goes from now


Chorus:
Em           Cadd9    G        Bm/D
This is the last of illusions
Em            Cadd9        G   Bm/D
This is the final trace of innocence
       Em            Cadd9
If I'm caught in the middle
  G            D             Bm    C    Em
I know it will be the end of me


Bridge/Solo:

e|-----------------------------------|
B|-----------------------------------|
G|-----------4/9-9-9-----------------|
D|--2-2-2-2--4/9-9-9--9-9-9-9-9-9-9--|  x2
A|--2-2-2-2--2/7-7-7--9-9-9-9-9-9-9--|
E|--0-0-0-0-----------7-7-7-7-7-7-7--|

This is not a mistake

e|-----------------------------------|
B|-----------------------------------|
G|-----------4/9-9-9-----------------|
D|--2-2-2-2--4/9-9-9--9-9-9-9-9-9-9--|  
A|--2-2-2-2--2/7-7-7--9-9-9-9-9-9-9--|
E|--0-0-0-0-----------7-7-7-7-7-7-7--|

The dawn of a new day (Yeah)

e|-----------------------------------|
B|-----------------------------------|
G|-----------4/9-9-9-----------------|
D|--2-2-2-2--4/9-9-9--9-9-9-9-9-9-9--|  
A|--2-2-2-2--2/7-7-7--9-9-9-9-9-9-9--|
E|--0-0-0-0-----------7-7-7-7-7-7-7--|

This is not a mistake


Em - Cadd9 - G - Bm

             Hmm...Bm...

Em - Cadd9 - G - D


Em    Cadd9
Hey
          G      D
Stay with me


Em - Cadd9 - G - Bm


Em    Cadd9
Hey
          G
Stay with me
Bm/D              
As I'm getting naked


Em - Cadd9 - G - Bm


Chorus:
Em           Cadd9    G        Bm/D
This is the last of illusions
Em            Cadd9        G   Bm/D
This is the final trace of innocence
       Em            Cadd9
If I'm caught in the middle
  G            D
I know it will be
         Bm   C    Em - Cadd9 - G - Bm         
It's the last of illusion (of illusions)
            Em - Cadd9 - G - Bm
This is the final trace of innocence
       Em            Cadd9
If I'm caught in the middle
  G            D             Bm    C    Em
I know it will be the end of me

(The end of me)

Em - Cadd9 - G - Bm

           Hey-yeah

Em - Cadd9 - G - Bm    

(Fade out)


============================================================================





Comments


Popular Marion Raven tabs & chords
Crawl Chords
Get Me Out Of Here Chords
Here I Am Chords
Let Me Introduce Myself Chords
Little By Little Chords
Break You Tabs
Falling Away Tabs
For You I'll Die Tabs
Thank You For Loving Me Ukulele
There I Said It Ukulele


Song lyrics



↑ Back to top | Tablatures and chords are parodies/interpretations of the original songs. You may use it for private study, scholarship, research or language learning purposes only
© 2014 AZChords.com Contact us | Privacy policy | DMCA | Add/correct tabs | Request tabs | Top 50 tabs