» » »

Marilyn Manson, (S)Aint Tabs (ver.1)

Artists:  A B C D E F G H I J K L M N O P Q R S T U V W X Y Z # 

(S)Aint Tabs (ver.1)

Marilyn Manson Tabs
Rating:
0/5 (0 votes)
(S)Aint lessons Tabs too difficult? Try these video lessons and learn fast
                Marilyn Manson
(s)AINT
D A D G B E

Verse
A|-------8^~~-------8h10-----------------------------------|
D|--0-0-------0--0--------0-0-0--12--12--0--0---12p0-12p0--|

(cont.)
A|-------8^~~-------8h10---------------------------|
D|--0-0-------0--0--------0-0-0--12--12----0--0----|

Pre-Chorus (“You wanted perfect..”)
G|--10-10-10-10--12---7--7-7-7-7--5--10-10-10-10--12---7----|
D|--10-10-10-10--12---7--7-7-7-7--5--10-10-10-10--12---7----|
A|---8--8--8--8--10---5--5-5-5-5--3---8--8--8--8--10---5----|

(cont.)
G|--7-7-7-7-7-7-7------|
D|--7-7-7-7-7-7-7------|
A|--5-5-5-5-5-5-5------|

Chorus (Gtr. 1) (“What’s my name, what’s my name..”)
A|--5-5---5-5-----5-5---5---5----5-5---5-5-----5-5---5---5--|
D|--0-0---0-0-----0-0---0---0----0-0---0-0-----0-0---0---0--|

Chorus/Riff(Gtr. 2)
E|-------13\12---11---10----------13\12---11---10---|
B|--------------------------------------------------|
G|--------------------------------------------------|
D|--12-----------------------12---------------------|

Post-Chorus
D|--10--10--10-10-10-10-12---7--7--7-7-7-7--5-5----10--10---|
A|---8---8---8--8--8--8-10---5--5--5-5-5-5--3-3-----8---8---|
D|---0---0---0--0--0--0--0---0--0--0-0-0-0--0-0-----0---0---|

(cont.)
D|--10--10--10-10-10-10-12---7--7--7-7-7-7--7-7----|
A|---8---8---8--8--8--8-10---5--5--5-5-5-5--5-5----|
D|---0---0---0--0--0--0--0---0--0--0-0-0-0--0-0----|

Outro (Gtr. 3)
E|---------------17------------------20------------------17--|
B|--20--18--17----------20--18--17----------20--18--17-------|

(cont.)
E|-----------------22----|
B|--20--18--17-----------|
            
Submit corrections

comments powered by Disqus
↑ Back to top | Marilyn Manson Tabs for (S)Aint. Lyrics for acoustic guitar and electric guitar. Tablatures and chords are parodies/interpretations of the original songs. You may use it for private study, scholarship, research or language learning purposes only