» » »

Marilyn Manson, President Dead Tabs (ver.3)

Artists:  A B C D E F G H I J K L M N O P Q R S T U V W X Y Z # 

President Dead Tabs (ver.3)

Marilyn Manson Tabs
 Rating:
4/5 (4 votes)
President Dead lessons Tabs too difficult? Try these video lessons and learn fast
1
                * = strum 8x

Intro
E|-------6-6-6-6-\-3-3-3-3-|----|--------|
B|-------x-x-x-x-\-x-x-x-x-|----|--------|
G|-------3-3-3-3-\-0-0-0-0-|----|--7*/9--|
D|-5-2---------------------|----|--7*/9--|
A|-5-2---------------------|-3x-|--5*/7--|
E|-3-0---------------------|----|--------|

1st Verse - Just Bass

Fill 1 (“His stained glass skull...”)
e|------------------|
B|--12-----11--10---|
g|------------------|
d|------------------|
a|------------------|
E|------------------|
  NH--------------|

Fill 2 (Gtr. 2) (“God like a piggy..”)
e|------------------------------|
b|-12*-11-11-11-11-10-10-10-10--|
g|------------------------------|
d|------------------------------|
a|------------------------------|
E|------------------------------|
pm--------------------------|

Fill 3 (Gtr. 1)
e|---------|
b|---------|
g|---------|
d|-X-X-X-X-|
a|-X-X-X-X-|
E|-X-X-X-X-|

Chorus (Gtr. 1)
e|-------------------------|
b|-------------------------|
G|-----5*------------------|
D|--7*-5*-5*--4-----3------|
A|--7*-3*-5*--4-----3------|
E|--5*----3*--2(4x)-1(4x)--|

Chorus (Gtr. 2) (All notes strummed 8x)
E|-------------------------------10-11--15-|
B|-10-12-13-------------10-12-13-x--x---x--|
G|--x--x--x-------------x--x---x-7--9--12--|
D|--7--9-10--10-11-12---7--9--10-----------|
A|------------x--x--x----------------------|
E|------------7--9-10----------------------|

Verse 2 (Gtr. 1)
E|------X-X-X-------------X-X-X-|------------|
B|------X-X-X-------------X-X-X-|------------|
G|------X-X-X-------------X-X-X-|-7-7-7-7/9--|
D|-5-2----------2-X-X-X---------|-7-7-7-7/9--|
A|-5-2----------2-X-X-X---------|-5-5-5-5/7--|
E|-3-0----------0-X-X-X---------|------------|

Interlude (Gtr. 1)
d|------------------|--%--|
A|---2-----2--------|--%--|
E|-----0------3--0--|--%--|

Solo (Gtr. 1)(All bends are a half step)
E|-------------------------10-9-7-0-----------------------3^--|
B|------------------------------------7--5--3--0--5^--0-------|
G|--------4p0---7p6-------------------------------------------|
D|-------------4-------7--------------------------------------|
A|--0h2-------------------------------------------------------|
E|------------------------------------------------------------|


Solo Part 2
E|-11------11------11-----11-------|
B|----10-10--10-10---10-10--10-10--|
G|---------------------------------|
finally
D|---5----2----|
A|---5----2----|
E|---3----0----|

Song Structre: -
The President Is Dead..... Let Us Pray
Intro
1st Verse - Just Bass
Fill 1 (Gtr. 1)
Fill 2 (Gtr. 2)
Fill 3 (Gtr. 1)
Chorus (Gtr. 1)/Chorus (Gtr. 2)
Intro
Verse 2
Chorus (Gtr. 1)/Chorus (Gtr. 2)
Interlude
Solo
Solo Part 2 (Gtr. 1)/Chorus (Gtr. 2)
Chorus (Gtr. 1)/Chorus (Gtr. 2)
End
            
Submit corrections

comments powered by Disqus
↑ Back to top | Marilyn Manson Tabs for President Dead. Lyrics for acoustic guitar and electric guitar. 1 Tablatures and chords are parodies/interpretations of the original songs. You may use it for private study, scholarship, research or language learning purposes only