» » »

Lamb Of God Tabs (ver.2)

Artists:  A B C D E F G H I J K L M N O P Q R S T U V W X Y Z # 

Lamb Of God Tabs (ver.2)

Marilyn Manson
Rating:
0/5 (0 votes)

Hard to play? Try these video lessons and learn fast.
                Dif.: 6

NOTE: John 5 plays an acoustic... So that means Guitar 1 is an acoustic.... uh hyuck

Intro (w/phaser) (Gtr. 2)
E|--17--------15-------13------12------|

Verse (Gtr. 1) (“There was Christ...”)
E|------0--------0---0---|
B|------1--------0---2---|
G|------2--------0---3---|
D|---2-2---------0---3---|
A|-0---0-----0--0----0---|
E|----------3------------|

Bridge (“If you die when...”) (Gtr. 1)
E|--0-----3------1------|
B|--1-----3------1------|
G|--2-----0------2------|
D|--2-----0------3------|
A|--0(8x)-2------3------|
E|--------3(4x)--1(4x)--|

Bridge (Gtr. 2)
e|--8--5--8--5--8--5--8--5--7--5--7--5^--|
b|---------------------------------------|
				                   ^ 1/2 bend

Chorus (Nothing’s gonna change..”) (Gtr. 1)
E|-0-------3-------1-------0------3-------1----------|
B|-1-------3-------1-------1------3-------1----------|
G|-0-------0-------2-------2------0-------2----------|
D|-2-------0-------3-------2------0-------3----------|
A|-3(10x)--2-------3-------0(10x)-2-------3----------|
E|---------3(10x)--1(20x)---------3(10x)--1(20x)-----|

Chorus (Gtr. 2) (w/ light dist.)
C5 (10x) G5 (10x) F5(20x) A5(10x) G5(10x) F5(20x)

Interlude (Gtr. 2) (w/ phaser)
B|------------3-3---3-5--------------3---------|
G|-2---2-4-5------5------2-2---2-4-5----5-4-2--|

Chorus (Gtr. 3)
e|-8--7--5--3--5---5--5--7--5--3--5--5--3--5--5--3--|
b|--------------------------------------------------|

Verse (Gtr. 2)
E|-----------------4^---4^-----|
B|------------3----------------|
G|-2---4-5----5-------------2--|
                      ^ 1/2 bends

Outro (Gtr. 2) (w/ phaser)
B|----------3------3-------|
G|-2--2-4-5----3-5---4-2---|

Structure: - 
Intro
Verse
Bridge (Guitar 1)/Bridge (Guitar 2)
Intro
Verse
Bridge (Guitar 1)/Bridge (Guitar 2)
Chorus (Guitar 1)/Chorus (Guitar 2)
Interlude
Verse (Guitar 1)/Interlude (Guitar 2)
Chorus (Guitar 1)/Chorus (Guitar 2)
Chorus (Guitar 1)/Chorus (Guitar 2)/Chorus (Guitar 3)
Verse
Verse (Guitar 1)/Verse (Guitar 2)
Outro

Awesome song.... And what Manson says.... “If you die when there’s no one watching and your ratings drop and you’re forgotten. If they kill you on their TV, you’re a matyr in the lamb of god.”
            
Hard to play? Try these video lessons and learn fast. | Correct




comments powered by Disqus
↑ Back to top | Tablatures and chords are parodies/interpretations of the original songs. You may use it for private study, scholarship, research or language learning purposes only