» » »

Marilyn Manson, Get Your Gunn Tabs (ver.2)

Artists:  A B C D E F G H I J K L M N O P Q R S T U V W X Y Z # 

Get Your Gunn Tabs (ver.2)

Marilyn Manson Tabs
 Rating:
4/5 (4 votes)
Get Your Gunn lessons Tabs too difficult? Try these video lessons and learn fast
                "Intro
e------------------------------------------]
b------------------------------------------]
g------------------------------------------]
d---------2------------------2-------------]
a-------2---2-1----5/1----2---2-1----------]
D-7/1-2-----------------2--------------5-/1]

Chorus
e---------------------------------------------------]
b---------------------------------------------------]
g-9-------3------------------9-------3------12------]
d-9-x3----3-x3--6-----7------9-x3----3-x3---12-x8---]
a-7-------1-----6-x5--7-x3---7-------1------10------]
D---------------6-----7-----------------------------]

Bridge: ("Get your gunn!!)
e--------------]
b--------------]
g--------------]
d----2--2--2---]
a-7/-2--2--2---]
D----2--2--2---]
"            
Submit corrections

comments powered by Disqus
↑ Back to top | Marilyn Manson Tabs for Get Your Gunn. Lyrics for acoustic guitar and electric guitar. Tablatures and chords are parodies/interpretations of the original songs. You may use it for private study, scholarship, research or language learning purposes only