» » »

Marilyn Manson, Cryptorchid Tabs (ver.1)

Artists:  A B C D E F G H I J K L M N O P Q R S T U V W X Y Z # 

Cryptorchid Tabs (ver.1)

Marilyn Manson Tabs
 Rating:
4/5 (4 votes)
Cryptorchid lessons Tabs too difficult? Try these video lessons and learn fast
                Dif.: 5

NOTE: Trent plays this thing called a mellotron, I’ve never seen this thing in my life but they also use it on a couple of songs on Holy Wood also.
NOTE: Guitar 1 is Pogo & Guitar 2 is Trent Reznor

Intro (Gtr. 1)
e|-9-------5-------7-----|

Verse (Gtr. 1) (“Each time I make...”)
e|-9----5-----7-----9---12----10-----9--|

Fill/Verse 2 (Gtr. 2)
E|--------------------------------------------14--|
B|-----12-11----12-11-----12-11-------12-11-------|
G|--9--------9----------9---------8-9-------------|

Fill 2/Chorus (Gtr. 1)
B|-13------------10-11----10-|
G|-12-----12--------10----10-|
D|-10-----12---------8-----8-|
A|--------10---------------8-|

Chorus (Gtr. 2)
B|--13-------10-11-10--|
G|------12-------------|

Song Structure: -
Electronic Drum Intro
Intro (Gtr. 1)
Verse (Gtr. 1)
Verse (Gtr. 1)/Fill 1 (Gtr. 2) (“7, 8, 9, 10...”)
Verse (Gtr. 1)
Verse (Gtr. 1)/Verse (Gtr. 2) (“When the worm...”)
Fill 2 (Gtr. 1)
Chorus (Gtr. 1) (“Prick your finger...”)
Chorus (Gtr. 1)/Chorus (Gtr. 2)
Chorus (Gtr. 1)
            
Submit corrections

comments powered by Disqus
↑ Back to top | Marilyn Manson Tabs for Cryptorchid. Lyrics for acoustic guitar and electric guitar. Tablatures and chords are parodies/interpretations of the original songs. You may use it for private study, scholarship, research or language learning purposes only