» » »

Burning Flag Tabs (ver.2)

Artists:  A B C D E F G H I J K L M N O P Q R S T U V W X Y Z # 

Burning Flag Tabs (ver.2)

Marilyn Manson
Rating:
0/5 (0 votes)

Hard to play? Try these video lessons and learn fast.
                marilyn manson - burning flag

intro

e------------------------I------------------------------
B------------------------I------------------------------
G------------------------I------------------------------
D---060--060--060--060---I--xxxxxxxxxxxx-060------------
A---060--060--060--060---I--xxxxxxxxxxxx-060---(x-4)----
D---060--060--060--060---I--xxxxxxxxxxxx-060------------


e------------------------------------------------------
B------------------------------------------------------
G------------------------------------------------------
D---3-000--3-000--3-000--xx-060------------------------
A---3-000--3-000--3-000--xx-060---(x-4)----------------
D---3-000--3-000--3-000--xx-060------------------------

verse                                  pre chorus

e------------------------------------  I------------------------------
B------------------------------------  I------------------------------
G------------------------------------  I------------------------------
D---------060-------060-------060----  I---666--666--666--666---------
A---------060-------060-------060----  I---666--666--666--666---------
D---------060-------060-------060----  I---666--666--666--666---------

chorus

e---------------------------  I--------------------------------
B---------------------------  I--------------------------------
G--7777/5/8-----------------  I------5------5------5------5----
D--7777/5/8----(repeat)-----  I---4--5---4--5---4--5---4--5----
A--5555/3/6-----------------  I---4--3---4--3---4--3---4--3----
D---------------------------  I---4------4------4------4-------

after second chorus

e------------------------------------------------------
B------------------------------------------------------
G------------------------------------------------------
D------------------------------------------------------
A------------------------------------------------------
D---0--00----0--00----0--00----0--00----(x-2)----------

         carpy <^>
            
Hard to play? Try these video lessons and learn fast. | Correct




comments powered by Disqus
↑ Back to top | Tablatures and chords are parodies/interpretations of the original songs. You may use it for private study, scholarship, research or language learning purposes only