» » »

1996 Bass tabs (ver.1)

Artists:  A B C D E F G H I J K L M N O P Q R S T U V W X Y Z # 

1996 Bass tabs (ver.1)

Marilyn Manson
Rating:
5/5 (2 votes)

Hard to play? Try these video lessons and learn fast.
                
Write me if you have questions, comments, corrections, want .midi samples of
each riff, or have a tab request.

(4/4)(169 bpm)
Standard tuning

Notes:
  -Played with a pick and some form of distortion; Twiggy uses distortion
throughout the entire song with the exception of the first four measures of the
first verse and the pre-verse.
  -I cannot quite nail the end of the second and fourth measures in the first
part of the second intro.  What I have works with the song, but is not what
Twiggy is playing.  If anyone can figure out what he's playing, please let me
know.
  -There are small bass parts at the end of the song, but they are really minor
and hard to detect because the rest of the band are smashing their instruments.
I haven't bothered to transcribe it for that reason.

* - note held for an eighth beat
(#) - note held from previous riff

Intro 1 (rest for four measures)(0:00)

Intro 2 pt.1: (0:05)
|-----------------|-----------------|-----------------|----------------|
|-----------------|---------6---8---|9-*-*------------|--------6---8---|
|9-*-*------------|-----------6---6-|------9-*-*------|----------6---6-|
|------9-*-*-10-*-|*-11-*-*---------|------------10-*-|*-7-*-*---------|

Intro 2 pt.2: (0:11)
|----------------|----------------|----------------|----------------|
|6-*-*-*-*-*-*-*-|*-*-*-*-*-*-*-*-|*-*-*-*-*-*-*-*-|*-*-*-*-*-*-*-*-|
|----------------|----------------|----------------|----------------|
|----------------|----------------|----------------|----------------|

Intro 2 pt.3: (0:16)
|------------------|----------------|----------------|----------------|
|(6)-*-*-*-*-*-*-*-|*-*-*-*-*-*-*-*-|*-*-*-*-*-*-*-*-|*-*-*-*-*-*-*-*-|
|------------------|----------------|----------------|----------------|
|------------------|----------------|----------------|----------------|

Intro 2 pt.4 (pre-choruses/bridge): (x2)(0:22)
|----------------|----------------|
|--------5-7-5-8-|*-8-*-8-*-7-5---|
|7---7-7---------|----------------|
|----------------|----------------|

Intro 3 (verses): (x4)(0:28)
|----------------|----------------|
|----------------|----------------|
|----------------|----------------|
|0---0-0-3-5-3-6-|*-6-*-6-*-5-3---|

Verse 1 (x8)(0:39)
Pre-chorus 1 (x4)(1:02)

Chorus 1 (outro chorus): (x2)(1:13)
|----------------|----------------|----------------|----------------|
|------5-*-*-8-*-|*-7-*-*---------|------5-*-*-----|----------------|
|7-*-*-----------|----------------|7-*-*-------5-*-|*-7-*-*---------|
|----------------|--------0-0-000-|----------------|--------0-0-000-|

Pre-verse: (x4)(1:25)
|----------------|----------------|
|----------------|----------------|
|7---7-7-5-7-7---|----------------|
|--------------6-|*-6-*-6-*-5-3---|

Verse 2 (x8)(1:36)
Pre-chorus 2 (x4)(1:59)

Chorus 2: (2:10)
|----------------|----------------|----------------|----------------|
|------5-*-*-8-*-|*-7-*-*---------|------5-*-*-----|----------------|
|7-*-*-----------|----------------|7-*-*-------5-*-|*-7-*-*---------|
|----------------|--------0-0-000-|----------------|--------0-0-000-|

|----------------|----------------|----------------|----------------|
|------5-*-*-8-*-|*-7-*-*---------|------5-*-*-----|----------------|
|7-*-*-----------|----------------|7-*-*-------5-*-|*-7-*-*---------|
|----------------|--------0-0-000-|----------------|--------0-0-000-|

|----------------|--------7-------|----------------|----------------|
|------5-*-*-8-*-|*-7-*-*-----7---|------5-*-*-----|----------------|
|7-*-*-----------|----------------|7-*-*-------5-*-|*-7-*-*---------|
|----------------|----------------|----------------|--------0-0-000-|

|----------------|--------7-------|----------------|----------------|
|------5-*-*-8-*-|*-7-*-*-----7---|------5-*-*-----|--------8---7---|
|7-*-*-----------|----------------|7-*-*-------5-*-|*-7-*-*---------|
|----------------|----------------|----------------|----------------|

Interlude: (2:33)
|----------------|----------------|----------------|----------------|
|7-*-*-*-*-*-*-*-|*-*-*-*-*-*-*-*-|*-*-*-*-*-*-*-*-|*-*-*-*-*-*-*-*-|
|----------------|----------------|----------------|----------------|
|----------------|----------------|----------------|----------------|

|----------------|----------------|----------------|----------------|
|*-*-*-*-*-*-*-*-|*-*-*-*-*-*-*-*-|7-*-*-*-*-*-*-*-|*-*-*-*-*-*-*-*-|
|----------------|----------------|----------------|----------------|
|----------------|----------------|----------------|----------------|

Bridge (x4)(2:45)
Verse 3 (x4)(2:56)
Outro chorus (x4)(3:08)
Rest till end
            
Hard to play? Try these video lessons and learn fast. | Correct




comments powered by Disqus
↑ Back to top | Tablatures and chords are parodies/interpretations of the original songs. You may use it for private study, scholarship, research or language learning purposes only