» » »

Manu Chao, Lagrimas De Oro Bass tabs (ver.1)

Artists:  A B C D E F G H I J K L M N O P Q R S T U V W X Y Z # 

Lagrimas De Oro Bass tabs (ver.1)

Manu Chao Tabs
Rating:
0/5 (0 votes)
Hard to play? Try these video lessons and learn fast.
                bass
|--------------------------------------|
|-----5--4-----5--4-----5--4-----5--4--|
|--2--------2--------1--------1--------|
|--------------------------------------|

|--------------------------------------|
|-----5--4-----5--4-----5--4-----5--4--|
|--2--------2--------1--------1--------|
|--------------------------------------|
            

comments powered by Disqus
↑ Back to top | Manu Chao Bass for Lagrimas De Oro. Lyrics for acoustic guitar and electric guitar. Tablatures and chords are parodies/interpretations of the original songs. You may use it for private study, scholarship, research or language learning purposes only