» » »

Manowar, Holy War Tabs (ver.1)

Artists:  A B C D E F G H I J K L M N O P Q R S T U V W X Y Z # 

Holy War Tabs (ver.1)

Manowar Tabs
Rating:
0/5 (0 votes)
Holy War lessons Tabs too difficult? Try these video lessons and learn fast
                Manowar: Holy War(Fighting the World)

Standard Tuning


INTRO Fade in
|----------------------------------------------------------------------------|
|----------------------------------------------------------------------------|
|----------------------------------------------------------------------------|
|----------------------------------------------------------------------------|
|----------------------------------------------------------------------------|
|-0-0-0-0-0-0-0-0-0-0-0-0-0-0-0-0-0-0-0-0-0-0-0-0-0-0-0-0-0-0-0-0-0-0-0-0-0-0|


Play Riff 1: 
|4x-----------------------------------|--------------------------------------|
|-------------------------------------|--------------------------------------|
|-------------------------------------|--------------------------------------|
|-------------------------------------|-2--3---5---7---9---------------------|
|-------------------------------------|-2--3---5---7---9---------------------|
|-0-0-0-0-1-1-1-1-3-3-3-3-5-5-5-5-----|-0--1---3---5---7---------------------|

Play Chorus: E C G B, 3x E D  E C B A

Play Intro Riff

Play Riff 1

Play Chorus

Pre-Solo(Riff 1)                             Solo(No Backround,sorry)
|-------------------------------------------|--------12-----------------12---|
|---------------------------5-5--/10-10-/13-|-15(17)----15-12-----15(17----15|
|-4-4-444-5--7--5-4-5---7-7-----------------|-----------------14-------------|
|-------------------------------------------|--------------------------------|
|-------------------------------------------|--------------------------------|
|-------------------------------------------|--------------------------------|

|---------------12-------------------12------------131313-151515-171717------|
|-12-----15(17)----15-12------15(17)----15-12--------------------------------|
|----14------------------14-------------------14-----------------------------|
|----------------------------------------------------------------------------|
|----------------------------------------------------------------------------|
|----------------------------------------------------------------------------|

|-17-15----15--------------151515-171717-191919-202020-191919-171717-151515--|
|-------18----18-17-15-18----------------------------------------------------|
|----------------------------------------------------------------------------|
|----------------------------------------------------------------------------|
|----------------------------------------------------------------------------|
|----------------------------------------------------------------------------|
                              T       T       T       T
|-171717---19(21)-19(21)-17-|-12p10p7-12p10p7-12p10p7-12p10p7--15-12----15-12|
|---------------------------|----------------------------------------15------|
|---------------------------|------------------------------------------------|
|---------------------------|------------------------------------------------|
|---------------------------|------------------------------------------------|
|---------------------------|------------------------------------------------|

|----15-12----15-12----17-12----15-12----15-12----15-12----19-12-------------|
|-15-------15-------15-------15-------15-------15-------15-------15----------|
|----------------------------------------------------------------------------|
|----------------------------------------------------------------------------|
|----------------------------------------------------------------------------|
|----------------------------------------------------------------------------|

|-12-------12-------12-------12-------12-------12--------------17--------17--|
|----15-12----15-12----15-12----15-12----15-12----15-12-20(22)----20(22)-----|
|----------------------------------------------------------------------------|
|----------------------------------------------------------------------------|
|----------------------------------------------------------------------------|
|----------------------------------------------------------------------------|

|--------17--------17--------17--------17-|----------------------------------|
|-20(22)----20(22)----20(22)----20(22)----|----------------------------------|
|-----------------------------------------|-2(4)-2(4)-2(4)-2(4)br-0----------|
|-----------------------------------------|-------------------------2--------|
|-----------------------------------------|----------------------------------|
|-----------------------------------------|----------------------------------|

|----------------------------------------------------------------------------|
|----------------------------T-----T-----T-----T-----T-----T-----T-----T-----|
|-------4h5p4h5p4h5p4--2-----7p5p4-7p5p4-7p5p4-7p5p4-9p7p5-9p7p5-9p7p5-9p7p5-|
|-2-3-5------------------3---------------------------------------------------|
|----------------------------------------------------------------------------|
||P.H---|--------------------------------------------------------------------|
       T        T        T        T
|------17p15p12-17p15p12-17p15p12-17p15p12--1212121212121212-15-12----15-12--|
|------------------------------------------------------------------15-------15
|-4--------------------------------------------------------------------------|
|----------------------------------------------------------------------------|
|----------------------------------------------------------------------------|
|----------------------------------------------------------------------------|

|-15(17)--19-15---19-15----20-17-19-17-20-17-19-17--22-19-20-19-22-19-20-19--|
|--------------17-------17---------------------------------------------------|
|----------------------------------------------------------------------------|
|----------------------------------------------------------------------------|
|----------------------------------------------------------------------------|
|----------------------------------------------------------------------------|

|-22(24)--15-12----17-12----15-12----17-12-----20-19-17-22-20-19-22(24)------|
|---------------15-------15-------15-------15--------------------------------|
|----------------------------------------------------------------------------|
|----------------------------------------------------------------------------|
|----------------------------------------------------------------------------|
|----------------------------------------------------------------------------|

|-12121212121212--121212-141414-151515-171717-17(19)-------------------------|
|----------------------------------------------------------------------------|
|----------------------------------------------------------------------------|
|----------------------------------------------------------------------------|
|----------------------------------------------------------------------------|
|----------------------------------------------------------------------------|

Play Whole Chorus 1x and then Play the second pattern 6x
            

comments powered by Disqus
↑ Back to top | Manowar Tabs for Holy War. Lyrics for acoustic guitar and electric guitar. Tablatures and chords are parodies/interpretations of the original songs. You may use it for private study, scholarship, research or language learning purposes only