» » »

Black Wind, Fire And Steel Tabs (ver.1)

Artists:  A B C D E F G H I J K L M N O P Q R S T U V W X Y Z # 

Black Wind, Fire And Steel Tabs (ver.1)

Manowar
Rating:
0/5 (0 votes)

Hard to play? Try these video lessons and learn fast.
                
-|----------------------------------------------------------------------------|
-|----------------------------------------------------------------------------|
-|----------------------------------------------------------------------------|
-|----------------------5--7--9--------------------5--7--9--------------------|
-|77777777777777777777--3--5--7--77777777777777777-3--5--7--------------------|
-|----------------------------------------------------------------------------|
 Chorus:

-|----------|-----------|-----------|-----------|-----------------------------|
-|----------|-----------|-----------|-----------|-----------------------------|
-|----------|-----------|-----------|-----------|-----------------------------|
-|---7--9---|----7--9---|----7--9---|-5--7--9---|-----------------------------|
-|5--5--7---|-5--5--7---|-5--5--7---|-3--5--7---|-----------------------------|
-|3---------|-3---------|-3---------|-----------|-----------------------------|

Chorus after the solo :
-|----------|-----------|-----------|-------------|-----------------------------|
-|----------|-----------|-----------|-------------|-----------------------------|
-|----------|-----------|-----------|-------------|-----------------------------|
-|---7--9---|----7--9---|----7--9---|-5-5-7-7-9-9-|-----------------------------|
-|5--5--7---|-5--5--7---|-5--5--7---|-3-3-5-5-7-7-|-----------------------------|
-|3---------|-3---------|-3---------|-------------|-----------------------------|


At a certain time in the ending there is a part from "master of revenge" in it which goes like
this:

-|----------------------------------------------------------------------------|
-|----------------------------------------------------------------------------|
-|----------------------------------------------------------------------------|
-|-----------------10--9------------------2-----------------------------------|
-|-----7--7--10-7---------7-9-10----------2-----------------------------------|
-|----------------------------------------0-----------------------------------|

SOLO-

|-17-16-------|--------------------------------------------------------------|
|-------17----|-------------------------------P.H----------------------------|
|----------16-|-------------------------------9------------------------------|
|-------------|-----------------------------------------------5---------7----|
|-------------|---7-7-7-7---7-7-7-7---7-7-7-7-------5-7-7-7-7---7-7-7-7---7-7|
|-------------|-0---------0---------0----------------------------------------|

|-------------------|-17(18)-br-17(18)-br-17(18)-br-17(18)-br-17(18)-br-15---|
|---------------P.H-|--------------------------------------------------------|
|---------------9---|--------------------------------------------------------|
|-----9-------------|--------------------------------------------------------|
|-7-7---7-7-7-7-----|--------------------------------------------------------|
|-------------------|--------------------------------------------------------|

|-20(22)-|-20-19-17----------------------------------------------------------|
|--------|----------20-19-17-19-17-15-17-15-13-15-13-12-13-12----12----------|
|--------|----------------------------------------------------14----14-12-14-|
|--------|-------------------------------------------------------------------|
|--------|-------------------------------------------------------------------|
|--------|-------------------------------------------------------------------|
                                  T     T     T     T     T     T     T
|----------------|----------------7p5p3-7p5p3-7p5p3-7p5p3-8p5p3-8p5p3-8p5p3--|
|----------------|-----------------------------------------------------------|
|-12-11-12-11----|-pickscr*pe-up---------------------------------------------|
|-------------14-|-----------------------------------------------------------|
|----------------|-----------------------------------------------------------|
|----------------|-----------------------------------------------------------|
  T     T     T     T     T     T     T
|-8p5p3-7p5p3-7p5p3-7p5p3-7p5p3-7p5p3-7p5p3-|-22p0-22p0-22p0-22p0-20p0-20p0--|
|-------------------------------------------|--------------------------------|
|-------------------------------------------|--------------------------------|
|-------------------------------------------|--------------------------------|
|-------------------------------------------|--------------------------------|
|-------------------------------------------|--------------------------------|

|-20p0-20p0-19p0-20p0-19p0-20p0-19p0-20p0-19-|-20-19-17----------20-19-17----|
|--------------------------------------------|----------20-19-17-------------|
|--------------------------------------------|-------------------------------|
|--------------------------------------------|-------------------------------|
|--------------------------------------------|-------------------------------|
|--------------------------------------------|-------------------------------|

|----------------------------------------------------------------------------|
|-20-19-17-----------------------------------------17-19-20-19-17------------|
|-----------19-17-16----------------------16-17-19----------------19-17-16---|
|--------------------19-17-16----16-17-19------------------------------------|
|-----------------------------19---------------------------------------------|
|----------------------------------------------------------------------------|

|-15-12-15-12----15-12-15-12-15-12----15-12-15-12----15-12-15-12-15-12-------|
|-------------15-------------------15-------------15-------------------15----|
|----------------------------------------------------------------------------|
|----------------------------------------------------------------------------|
|----------------------------------------------------------------------------|
|----------------------------------------------------------------------------|

|-17-14-17-14-17-14----17-14-17-14---17-14-17-14----17-14-17-14-17-14--------|
|-------------------15-------------15------------15-------------------15-----|
|----------------------------------------------------------------------------|
|----------------------------------------------------------------------------|
|----------------------------------------------------------------------------|
|----------------------------------------------------------------------------|

|-22---(bend-slowly)---22(24)-22(24)-22(24)-22(24)-22(24)-22(24)-22(24)-22(24--|
|------------------------------------------------------------------------------|
|------------------------------------------------------------------------------|
|------------------------------------------------------------------------------|
|------------------------------------------------------------------------------|
|------------------------------------------------------------------------------|
            
Hard to play? Try these video lessons and learn fast. | Correct




comments powered by Disqus
↑ Back to top | Tablatures and chords are parodies/interpretations of the original songs. You may use it for private study, scholarship, research or language learning purposes only