>
 >
Top Eight

Top Eight Guitar Tabs

Man Overboard - Top Eight chords, tabs, tablatures, lyrics

Guitar lessons | Add/correct | Request | Top 50 tabs Artists:  A B C D E F G H I J K L M N O P Q R S T U V W X Y Z 0-9

Top Eight Guitar Tabs – Man Overboard

CD, Sheet music, Poster

Do you like Top Eight? Share with your friends now
Tabs
------------------------------------------------------------------------------
------------------------------------------------------------------------------


Tuning :    Eb (Half Step Down)
            Eb, Ab, Db, Gb, Bb, eb

Key :       Eb Major

NOTE: "Top Eight" has a lot of electronic elements and
guitar effects scattered throughout. The tab below is 
arranged for a more basic, chord-driven performance.

VERSE ONE (0:07)

   (x4)
eb|------------------------------------------------------------|
Bb|------------------------------------------------------------|
Gb|--6--------------------2------------------------------------|
Db|--6--  LET RING  ------2--  LET RING  -----2----------------|
Ab|--4--------------------0-------------------2--  LET RING  --|
Eb|-------------------------------------------0----------------|
  1  guess that we are    not best friends anymore
  2  don't think that   I like you         anymore
  3  washed up,         pathetic           touch and
  4  I don't wanna        be your friend   anymore

CHORUS (0:39)

   (x1)
eb|-------------------------------------------------|
Bb|-------------------------------------------------|
Gb|-------------------------------------------------|
Db|--4---------------7---------------2--------------|
Ab|--4-- LET RING ---7-- LET RING ---2-- LET RING --|
Eb|--2---------------5---------------0--------------|
  1  You'll die and I'll say what a waste

   (x1)
eb|-------------------------------------------------------------------------------|
Bb|-------------------------------------------------------------------------------|
Gb|---------------------------------6--------------4---------------2--------------|
Db|--4--------------7---------------6-- LET RING --4-- LET RING ---2-- LET RING --|
Ab|--4-- LET RING --7-- LET RING ---4--------------2---------------0--------------|
Eb|--2--------------5-------------------------------------------------------------|
  1  You used to    be such a      catch but     mess but now     mess

Lead guitar plays this little melody continuously over whole chorus

eb|-----16-17-16--|
Bb|--17-----------|
Gb|---------------|
Db|---------------|
Ab|---------------|
Eb|---------------|

SEGUE TO SECOND VERSE (1:19)

   (x1)
eb|----------------------------------|
Bb|----------------------------------|
Gb|--6-6-6-6-6-6-6--2-2-2-2-2-2-2-2--|
Db|--6-6-6-6-6-6-6--2-2-2-2-2-2-2-2--|
Ab|--4-4-4-4-4-4-4--0-0-0-0-0-0-0-0--|
Eb|----------------------------------|
     P.M---------------------------|
  1  Guess I'm not  same guy anymore

   (x1) Guitar One - Rhythm (1:23)
eb|--------------------------------------------------------------------|
Bb|--------------------------------------------------------------------|
Gb|-----------------------------------4-4-4-4-4-4-4-4-4-4-4-4-4-4-4-4--|
Db|--2-2-2-2-2-2-2-2-2-2-2-2-2-2-2-2--4-4-4-4-4-4-4-4-4-4-4-4-4-4-4-4--|
Ab|--2-2-2-2-2-2-2-2-2-2-2-2-2-2-2-2--2-2-2-2-2-2-2-2-2-2-2-2-2-2-2-2--|
Eb|--0-0-0-0-0-0-0-0-0-0-0-0-0-0-0-0-----------------------------------|

   (x2) Guitar Two - Lead (1:23)
eb|--------------------------------------------------------------------|
Bb|--------------------------------------------------------------------|
Gb|--13-13-13-13-13-13-13-13-13-13-13-13--11-11--16-16-----------------|
Db|---x--x--x--x--x--x--x--x--x--x--x--x---x--x---x--x-----------------|
Ab|--11-11-11-11-11-11-11-11-11-11-11-11---9--9--14-14-----------------|
Eb|--------------------------------------------------------------------|

VERSE TWO (01:29)

   (x4)
eb|---------------------------------------------------------------------|
Bb|---------------------------------------------------------------------|
Gb|--6-6-6-6-6-6-6-6--2-2-2-2-2-2-2-2-----------------------------------|
Db|--6-6-6-6-6-6-6-6--2-2-2-2-2-2-2-2--2-2-2-2-2-2-2-2-2-2-2-2-2-2-2-2--|
Ab|--4-4-4-4-4-4-4-4--0-0-0-0-0-0-0-0--2-2-2-2-2-2-2-2-2-2-2-2-2-2-2-2--|
Eb|------------------------------------0-0-0-0-0-0-0-0-0-0-0-0-0-0-0-0--|
     P.M--------------------------------------------------------------|
  1  Guess I'm not    same guy anymore
  2  Lot of things    clear to me
  3  Stand for these antics, don't even wanna understand them
  4  I don't wanna    be your friend anymore

CHORUS TWO (1:54)

   (x1)
eb|--------------------------------------------------------------------|
Bb|--------------------------------------------------------------------|
Gb|--------------------------------------------------------------------|
Db|--4-4-4-4-4-4-4-4-4-4-4-4-4-4-4-4--7-7-7-7-7-7-7-7-7-7-7-7-7-7-7-7--|
Ab|--4-4-4-4-4-4-4-4-4-4-4-4-4-4-4-4--7-7-7-7-7-7-7-7-7-7-7-7-7-7-7-7--|
Eb|--2-2-2-2-2-2-2-2-2-2-2-2-2-2-2-2--5-5-5-5-5-5-5-5-5-5-5-5-5-5-5-5--|
  1   You'll     die      and          I'll     say     what   a  wa-

   (x1)
eb|--------------------------------------------------------------------|
Bb|--------------------------------------------------------------------|
Gb|--------------------------------------------------------------------|
Db|-----2--2--------2----2--2--2----2--2-2--------2----2--2--2---------|
Ab|-----2--2--------2----2--2--2----2--2-2--------2----2--2--2---------|
Eb|-----0--0--0-0---0----0--0--0----0--0-0--0-0---0----0--0--0---------|
              P.M                           P.M
  1     -ste

   (x1)
eb|--------------------------------------------------------------------|
Bb|--------------------------------------------------------------------|
Gb|--------------------------------------------------------------------|
Db|--4-4-4-4-4-4-4-4-4-4-4-4-4-4-4-4--7-7-7-7-7-7-7-7-7-7-7-7-7-7-7-7--|
Ab|--4-4-4-4-4-4-4-4-4-4-4-4-4-4-4-4--7-7-7-7-7-7-7-7-7-7-7-7-7-7-7-7--|
Eb|--2-2-2-2-2-2-2-2-2-2-2-2-2-2-2-2--5-5-5-5-5-5-5-5-5-5-5-5-5-5-5-5--|
  1    You     used      to                be    such      a       ca-

   (x1)
eb|--------------------------------------------------------------------|
Bb|--------------------------------------------------------------------|
Gb|--6-6-6-6-6-6-6-6-6-6-6-6-6-6-6-6--4-4-4-4-4-4-4-4-4-4-4-4-4-4-4-4--|
Db|--6-6-6-6-6-6-6-6-6-6-6-6-6-6-6-6--4-4-4-4-4-4-4-4-4-4-4-4-4-4-4-4--|
Ab|--4-4-4-4-4-4-4-4-4-4-4-4-4-4-4-4--2-2-2-2-2-2-2-2-2-2-2-2-2-2-2-2--|
Eb|--------------------------------------------------------------------|
  1  -tch       but now you're a        mess, but now you're a

   (x1)
eb|--------------------------------------------------------------------|
Bb|--------------------------------------------------------------------|
Gb|--2--------------------------------2--------------------------------|
Db|--2--  LET RING  ------------------2--  LET RING  ------------------|
Ab|--0--------------------------------0--------------------------------|
Eb|--------------------------------------------------------------------|
  1  mess

OUTRO (2:26)

   (x1)
eb|-----------------------------------------------------------|
Bb|-----------------------------------------------------------|
Gb|--6--------------------2-----------------------------------|
Db|--6--  LET RING  ------2--  LET RING  ----2----------------|
Ab|--4--------------------0------------------2--  LET RING  --|
Eb|------------------------------------------0----------------|
  1  Guess that we are   not best friends anymore





Comments


Popular Man Overboard tabs & chords
World Favorite Bass Tabs
Decemberism 1 Chords
Montrose Chords
Secret Pain Chords
5 Girls Pizza Tabs
Fm Dial Style 2 Tabs
Love Your Friends, Die Laughing Tabs
The Real You Tabs
They Dont Make Em Like They Used To Tabs
The Absolute Worst Ukulele


Song lyrics



↑ Back to top | Tablatures and chords are parodies/interpretations of the original songs. You may use it for private study, scholarship, research or language learning purposes only
© 2014 AZChords.com Contact us | Privacy policy | DMCA | Add/correct tabs | Request tabs | Top 50 tabs