>
 >
The Real You

The Real You Guitar Tabs

Man Overboard - The Real You chords, tabs, tablatures, lyrics

Guitar lessons | Add/correct | Request | Top 50 tabs Artists:  A B C D E F G H I J K L M N O P Q R S T U V W X Y Z 0-9

The Real You Guitar Tabs – Man Overboard

CD, Sheet music, Poster

Do you like The Real You? Share with your friends now
Tabs
------------------------------------------------------------------------------
------------------------------------------------------------------------------


Tuning: Eb (Half Step Down)
  
INTRO (0:00):

   (x1) Gentle palm mute
eb|-------------------------------------|
Bb|-------------------------------------|
Gb|--9-9-9-9-9-9-9-9-9-9-9-9-9-9-9-9-9--|
Db|-------------------------------------|
Ab|-------------------------------------|
Eb|-------------------------------------|

VERSE ONE (0:02)

   (x1)
eb|----------------------------------------------------------------------|
Bb|----------------------------------------------------------------------|
Gb|-------------------6--------------------------------------------------|
Db|--7----------------6--  LET RING  --7----------------2----------------|
Ab|--7--  LET RING  --4----------------7--  LET RING  --2--  LET RING  --|
Eb|--5---------------------------------5----------------0----------------|
  1    This fading      should have       Turn off the    slow

eb|--------------------------------|
Bb|--------------------------------|
Gb|--4--4-4-4-4-4-4-4-4-4-4--4--4--|
Db|--4--4-4-4-4-4-4-4-4-4-4--4--4--|
Ab|--2--2-2-2-2-2-2-2-2-2-2--2--2--|
Eb|--------------------------------|
        P.M----------------|

CHORUS ONE (0:23)

eb|--------------------------------------------|
Bb|--------------------------------------------|
Gb|--------------------------------------------|
Db|--2-2--2-2--2-2--2-2----2-2--2-2--2-2--2-2--|
Ab|--2-2--2-2--2-2--2-2----2-2--2-2--2-2--2-2--|
Eb|--0-0--0-0--0-0--0-0----0-0--0-0--0-0--0-0--|
  1   Where were all        needed someone to

eb|--------------------------------------------|
Bb|--------------------------------------------|
Gb|--6-6--6-6--6-6--6-6------------------------|
Db|--6-6--6-6--6-6--6-6----7-7--7-7--7-7--7-7--|
Ab|--4-4--4-4--4-4--4-4----7-7--7-7--7-7--7-7--|
Eb|------------------------5-5--5-5--5-5--5-5--|
  1                               I feel like

POSTCHORUS (0:34)

   (x2)
eb|----------------------------------------------------------------------|
Bb|----------------------------------------------------------------------|
Gb|-------------------4----------------6---------------------------------|
Db|--2----------------4--  LET RING  --6--  LET RING--7-7---7-7--7-------|
Ab|--2--  LET RING  --2----------------4--------------7-7---7-7--7-------|
Eb|--0------------------------------------------------5-5---5-5--5-------|
  1   dying                     here                I feel like I'm
  2   dying             here   

VERSE TWO (0:45)

   (x1)
eb|----------------------------------------------------------------------|
Bb|----------------------------------------------------------------------|
Gb|-------------------6--------------------------------------------------|
Db|--7----------------6--  LET RING  --7----------------2----------------|
Ab|--7--  LET RING  --4----------------7--  LET RING  --2--  LET RING  --|
Eb|--5---------------------------------5----------------0----------------|
  1    You never        I knew from     Never too late  Trying hard

eb|--------------------------------|
Bb|--------------------------------|
Gb|--4--4-4-4-4-4-4-4-4-4-4--4--4--|
Db|--4--4-4-4-4-4-4-4-4-4-4--4--4--|
Ab|--2--2-2-2-2-2-2-2-2-2-2--2--2--|
Eb|--------------------------------|
        P.M----------------|

CHORUS TWO (1:06)

   (x2)
eb|--------------------------------------------|
Bb|--------------------------------------------|
Gb|--------------------------------------------|
Db|--2-2--2-2--2-2--2-2----2-2--2-2--2-2--2-2--|
Ab|--2-2--2-2--2-2--2-2----2-2--2-2--2-2--2-2--|
Eb|--0-0--0-0--0-0--0-0----0-0--0-0--0-0--0-0--|
  1   Where were all        needed someone to
  2   Where were all        needed someone to

eb|--------------------------------------------|
Bb|--------------------------------------------|
Gb|--6-6--6-6--6-6--6-6------------------------|
Db|--6-6--6-6--6-6--6-6----7-7--7-7--7-7--7-7--|
Ab|--4-4--4-4--4-4--4-4----7-7--7-7--7-7--7-7--|
Eb|------------------------5-5--5-5--5-5--5-5--|
  1   Where were all        needed someone to
  2   Where were all        needed someone to

BRIDGE (1:28)

   (x2)
eb|--------------------------------------------------------------------------|
Bb|--------------------------------------------------------------------------|
Gb|--6--------------------------------------------------4--------------------|
Db|--6--  LET RING  --7----------------2----------------4--  LET RING -------|
Ab|--4----------------7--  LET RING  --2--  LET RING  --2--------------------|
Eb|-------------------5----------------0-------------------------------------|
  1      In       reverie, I see the   real you         real you!
  2      Come home   tonight and we    make something   out of my

   (x1)
eb|--------------------------------------------------------------------------|
Bb|--------------------------------------------------------------------------|
Gb|--6-6-6-6-6-6-6-6------------------------------------4-4-4-4-4-4-4-4------|
Db|--6-6-6-6-6-6-6-6--7-7-7-7-7-7-7-7--2-2-2-2-2-2-2-2--4-4-4-4-4-4-4-4------|
Ab|--4-4-4-4-4-4-4-4--7-7-7-7-7-7-7-7--2-2-2-2-2-2-2-2--2-2-2-2-2-2-2-2------|
Eb|-------------------5-5-5-5-5-5-5-5--0-0-0-0-0-0-0-0-----------------------|
  1 Life, in      reverie, I see the      real you

eb|--------------------------------------------------------------------------|
Bb|--------------------------------------------------------------------------|
Gb|--6-6-6-6-6-6-6-6-----------------------------------4---------------------|
Db|--6-6-6-6-6-6-6-6--7-7-7-7-7-7-7-7--2---------------4--  LET RING--2------|
Ab|--4-4-4-4-4-4-4-4--7-7-7-7-7-7-7-7--2--  LET RING  -2--------------2------|
Eb|-------------------5-5-5-5-5-5-5-5--0------------------------------0------|
     P.M-----------------------------|
  1            Come   home  to       night, maybe I'll find you so    Where

INTRO RIFF (1:49)

   (x1) As you reach the halfway point, start bending each note up a bit
eb|--------------------------------------------------------------------------|
Bb|--------------------------------------------------------------------------|
Gb|--9-9-9-9-9-9-9-9-9-9-9-9-9-9-9-9-9-9-9-9-9-9-9-9-9-9-9-9-9-9-9-9-9-9-----|
Db|--------------------------------------------------------------------------|
Ab|--------------------------------------------------------------------------|
Eb|--------------------------------------------------------------------------|
     P.M----------------------------------------------------------------|
  1    Where were all the things you stand behind when you need someone

FINAL CHORUS (1:54)
 
eb|--------------------------------------------------------------------------|
Bb|--------------------------------------------------------------------------|
Gb|--6-6-6-6-6-6-6-6-6-6-6-6-6-6-6-6-----------------------------------------|
Db|--6-6-6-6-6-6-6-6-6-6-6-6-6-6-6-6--7-7-7-7-7-7-7-7-7-7-7-7-7-7-7-7--------|
Ab|--4-4-4-4-4-4-4-4-4-4-4-4-4-4-4-4--7-7-7-7-7-7-7-7-7-7-7-7-7-7-7-7--------|
Eb|-----------------------------------5-5-5-5-5-5-5-5-5-5-5-5-5-5-5-5--------|
  1    Where were all the things         needed someone to stand

eb|--------------------------------------------------------------------------|
Bb|--------------------------------------------------------------------------|
Gb|--------------------------------------------------------------------------|
Db|--2-2-2-2-2-2-2-2-2-2-2-2-2-2-2-2-2-2-2-2-2-2-2-2-2-2-2-2-2-2-2-2---------|
Ab|--2-2-2-2-2-2-2-2-2-2-2-2-2-2-2-2-2-2-2-2-2-2-2-2-2-2-2-2-2-2-2-2---------|
Eb|--0-0-0-0-0-0-0-0-0-0-0-0-0-0-0-0-0-0-0-0-0-0-0-0-0-0-0-0-0-0-0-0---------|
  1    Where were all the things you stand behind when you needed

eb|--------------------------------------------------------------------------|
Bb|--------------------------------------------------------------------------|
Gb|--6-6-6-6-6-6-6-6-6-6-6-6-6-6-6-6-----------------------------------------|
Db|--6-6-6-6-6-6-6-6-6-6-6-6-6-6-6-6--7--------------------------------------|
Ab|--4-4-4-4-4-4-4-4-4-4-4-4-4-4-4-4--7--  LET RING--------------------------|
Eb|-----------------------------------5--------------------------------------|
  1    Where were all the things      need someone, you need somone

END ON (2:10)

eb|-----|
Bb|-----|
Gb|-----|
Db|--2--|
Ab|--2--|
Eb|--0--|





Comments


Popular Man Overboard tabs & chords
Love Your Friends Die Laughing 3 Chords
Where I Left You 1 Chords
Wide Awake 1 Chords
Disconnect Tabs
Dreaming 1 Tabs
Fantasy Girl Tabs
I Like You Tabs
Septemberism Tabs
Different People Ukulele
I Like You Ukulele


Song lyrics



↑ Back to top | Tablatures and chords are parodies/interpretations of the original songs. You may use it for private study, scholarship, research or language learning purposes only
© 2014 AZChords.com Contact us | Privacy policy | DMCA | Add/correct tabs | Request tabs | Top 50 tabs