>
 >
Septemberism

Septemberism Guitar Tabs

Man Overboard - Septemberism chords, tabs, tablatures, lyrics

Guitar lessons | Add/correct | Request | Top 50 tabs Artists:  A B C D E F G H I J K L M N O P Q R S T U V W X Y Z 0-9

Septemberism Guitar Tabs – Man Overboard

CD, Sheet music, Poster

Do you like Septemberism? Share with your friends now
Tabs
------------------------------------------------------------------------------
------------------------------------------------------------------------------



Tuning: Eb (Half Step Down)

INTRO, PART ONE (0:00)

   (x1)
eb|--------------------------------------------------------------------------|
Bb|--------------------------------------------------------------------------|
Gb|--------------------------------------------------------------------------|
Db|--------------------------------------------------------------------------|
Ab|--4-4-4-5-5-5-7-7-7-7-7-7-7-7-7-7---4-4-4-5-5-5-7-7-7-7-7-7-7-7-7-7-------|
Eb|--------------------------------------------------------------------------|
  P.M-----------------------------------------------------------------| Alright

INTRO, PART TWO (0:05)

   (x2)
eb|--------------------------------------------------------------------------|
Bb|--------------------------------------------------------------------------|
Gb|----------------7-------------7-------------------------------------------|
Db|--2-2-2-4-4-4---7-------------7---7-7-7-7-7-7-7-7-7-7-7-7-7-7-7-7---------|
Ab|--2-2-2-4-4-4---5-------------5---7-7-7-7-7-7-7-7-7-7-7-7-7-7-7-7---------|
Eb|--0-0-0-2-2-2---------------------5-5-5-5-5-5-5-5-5-5-5-5-5-5-5-5---------|

VERSE ONE (0:16)

   (x1)
eb|--------------------------------------------------------------------------|
Bb|--------------------------------------------------------------------------|
Gb|--4--4--4--4--4--4---4-4-4-4----7--7--7--7--7--7---7-7-7-7----------------|
Db|--4--4--4--4--4--4---4-4-4-4----7--7--7--7--7--7---7-7-7-7----------------|
Ab|--2--2--2--2--2--2---2-2-2-2----5--5--5--5--5--5---5-5-5-5----------------|
Eb|--------------------------------------------------------------------------|
     The rain poured                hang with you      and
   
   (x1)
eb|--------------------------------------------------------------------------|
Bb|--------------------------------------------------------------------------|
Gb|--------------------------------------------------------------------------|
Db|--7--7--7--7--7--7--7--7--------2--2--2--2--2--2---2-2-2-2----------------|
Ab|--7--7--7--7--7--7--7--7--------2--2--2--2--2--2---2-2-2-2----------------|
Eb|--5--5--5--5--5--5--5--5--------0--0--0--0--0--0---0-0-0-0----------------|
      every little thing         miss you more so I   running    

   (x1)
eb|--------------------------------------------------------------------------|
Bb|--------------------------------------------------------------------------|
Gb|--4-4-4-4-4-4-4-4-4-4-4-4-4-4-4-4---7-7-7-7-7-7-7-7-7-7-7-7-7-7-7-7-------|
Db|--4-4-4-4-4-4-4-4-4-4-4-4-4-4-4-4---7-7-7-7-7-7-7-7-7-7-7-7-7-7-7-7-------|
Ab|--2-2-2-2-2-2-2-2-2-2-2-2-2-2-2-2---5-5-5-5-5-5-5-5-5-5-5-5-5-5-5-5-------|
Eb|--------------------------------------------------------------------------|
       It's like I've never been... of doing something stupid

   (x1)
eb|--------------------------------------------------------------------------|
Bb|--------------------------------------------------------------------------|
Gb|--------------------------------------------------------------------------|
Db|--7-7-7-7-7-7-7-7-7-7-7-7-7-7-7-7---2---2---2---2---2---2---2---2---2-----|
Ab|--7-7-7-7-7-7-7-7-7-7-7-7-7-7-7-7---2---2---2---2---2---2---2---2---2-----|
Eb|--5-5-5-5-5-5-5-5-5-5-5-5-5-5-5-5---0---0---0---0---0---0---0---0---0-----|
                                      P.M----------------------------|
        trying to make a getaway         And I've have gone a...

CHORUS ONE (0:41)

   (x2)
eb|--------------------------------------------------------------------------|
Bb|--------------------------------------------------------------------------|
Gb|----------------7-------------7-------------------------------------------|
Db|--2-2-2-4-4-4---7-------------7---7-7-7-7-7-7-7-7-7-7-7-7-7-7-7-7---------|
Ab|--2-2-2-4-4-4---5-------------5---7-7-7-7-7-7-7-7-7-7-7-7-7-7-7-7---------|
Eb|--0-0-0-2-2-2---------------------5-5-5-5-5-5-5-5-5-5-5-5-5-5-5-5---------|
  1   meet   you   in             your   head
  2  -night when   you're          in    bed

VERSE TWO (0:53)

   (x1)
eb|--------------------------------------------------------------------------|
Bb|QUICKLY ------------------------------------------------------------------|
Gb|--7-4-----------------7---------------------------------------------------|
Db|--7-4-----------------7------------------7--------------2-----------------|
Ab|--5-2-----------------5------------------7--------------2-----------------|
Eb|-----------------------------------------5--------------0-----------------|
           The one time  freezing outside   Pulled my      grabbed me up

   (x1)
eb|--------------------------------------------------------------------------|
Bb|--------------------------------------------------------------------------|
Gb|--4--4-4-4-4-4-4-4-4-4-4-4-4-4-4----7--7-7-7-7-7-7-7-7-7-7-7-7-7-7--------|
Db|--4--4-4-4-4-4-4-4-4-4-4-4-4-4-4----7--7-7-7-7-7-7-7-7-7-7-7-7-7-7--------|
Ab|--2--2-2-2-2-2-2-2-2-2-2-2-2-2-2----5--5-5-5-5-5-5-5-5-5-5-5-5-5-5--------|
Eb|--------------------------------------------------------------------------|
        P.M------------------------|      P.M------------------------|
     Went downstairs, saw your         Tried to say some things but   

   (x1)
eb|--------------------------------------------------------------------------|
Bb|--------------------------------------------------------------------------|
Gb|--------------------------------------------------------------------------|
Db|--7-7-7-7-7-7-7-7-7-7-7-7-7-7-7-7---2---------------------------2---------|
Ab|--7-7-7-7-7-7-7-7-7-7-7-7-7-7-7-7---2-----  HOLD  --------------2---------|
Eb|--5-5-5-5-5-5-5-5-5-5-5-5-5-5-5-5---0---------------------------0---------|
     P.M----------------------------|                                  
      And I looked at you, you were    Sifting through the pages   Pictures

CHORUS TWO (1:16)

   (x4)
eb|--------------------------------------------------------------------------|
Bb|--------------------------------------------------------------------------|
Gb|----------------7-------------7-------------------------------------------|
Db|--2-2-2-4-4-4---7-------------7---7-7-7-7-7-7-7-7-7-7-7-7-7-7-7-7---------|
Ab|--2-2-2-4-4-4---5-------------5---7-7-7-7-7-7-7-7-7-7-7-7-7-7-7-7---------|
Eb|--0-0-0-2-2-2---------------------5-5-5-5-5-5-5-5-5-5-5-5-5-5-5-5---------|
  1   meet  you    in              your   head
  2  -night when   you're          in    bed (I know you're thinking)
  3  everything that I             all the shit that you go for
  4  kidding yourself now

BRIDGE (1:41)

   (x1)
eb|--------------------------|
Bb|-----------  UNSURE  -----|
Gb|--4--------6-\-4--4--6----|
Db|--4--------x-\-x--x-------|
Ab|--2--------4-\-2--2-------|
Eb|--------------------------|

   (x1)
eb|--------------------------------------------------------------------------|
Bb|--------------------------------------------------------------------------|
Gb|--------------------------------------------------------------------------|
Db|--7-7-------------7-7-------------x-x-7-7------------7-7-----7-7-7-7------|
Ab|--7-7-------------7-7-------------x-x-7-7------------7-7-----7-7-7-7------|
Eb|--5-5-------------5-5-------------x-x-5-5------------5-5-----5-5-5-5------|
    P.M-|           P.M-|           P.M-----|           P.M------------|
         I hate you      I hate you          I hate you         picked up the phone!

FINAL CHORUS (2:04)

   (x3 - on 1st, 2nd, and 4th time)
eb|--------------------------------------------------------------------------|
Bb|--------------------------------------------------------------------------|
Gb|----------------7-------------7-------------------------------------------|
Db|--2-2-2-4-4-4---7-------------7---7-7-7-7-7-7-7-7-7-7-7-7-7-7-7-7---------|
Ab|--2-2-2-4-4-4---5-------------5---7-7-7-7-7-7-7-7-7-7-7-7-7-7-7-7---------|
Eb|--0-0-0-2-2-2---------------------5-5-5-5-5-5-5-5-5-5-5-5-5-5-5-5---------|
  1    meet  you   in              your   head
  2   -night when  you're          in    bed (I know you're thinking)
  4    kidding     now

   (x1 - on 3rd time)
eb|--------------------------------------------------------------------------|
Bb|--------------------------------------------------------------------------|
Gb|--------------7-7-7-7-7-7-7-7-7-7-----------------------------------------|
Db|--2-2-2-4-4-4-7-7-7-7-7-7-7-7-7-7--7-7-7-7-7-7-7-7-7-7-7-7-7-7-7-7--------|
Ab|--2-2-2-4-4-4-5-5-5-5-5-5-5-5-5-5--7-7-7-7-7-7-7-7-7-7-7-7-7-7-7-7--------|
Eb|--0-0-0-2-2-2----------------------5-5-5-5-5-5-5-5-5-5-5-5-5-5-5-5--------|
  3  everything that I                 all the shit that you go for

END ON (2:28)

   (x1)
eb|--------|
Bb|--------|
Gb|--7--4--|
Db|--7--4--|
Ab|--5--2--|
Eb|--------|





Comments


Popular Man Overboard tabs & chords
Rare Bass Tabs
World Favorite Bass Tabs
Where I Left You 1 Chords
Wide Awake 1 Chords
Cry Baby Tabs
Montrose Tabs
She's Got Her Own Man Now Tabs
World Favorite 1 Tabs
Again Ukulele
Where I Left You Ukulele


Song lyrics



↑ Back to top | Tablatures and chords are parodies/interpretations of the original songs. You may use it for private study, scholarship, research or language learning purposes only
© 2014 AZChords.com Contact us | Privacy policy | DMCA | Add/correct tabs | Request tabs | Top 50 tabs