>
 >
Montrose

Montrose Guitar Tabs

Man Overboard - Montrose chords, tabs, tablatures, lyrics

Guitar lessons | Add/correct | Request | Top 50 tabs Artists:  A B C D E F G H I J K L M N O P Q R S T U V W X Y Z 0-9

Montrose Guitar Tabs – Man Overboard

CD, Sheet music, Poster

Do you like Montrose? Share with your friends now
ChordsChords v2Chords v3TabsUkulele
------------------------------------------------------------------------------
------------------------------------------------------------------------------



Tuning: Eb (Half Step Down)

INTRO (0:03)

    GUITAR ONE
eb|--------------------------------------------------------------------------|
Bb|--------------------------------------------------------------------------|
Gb|--9-9-9-9-9-9-9-9-9-9-9-9-9-9-9-9-9-9-9-9-9-9-9-9-9-9-9-9-9-9-9-9---------|
Db|--x-x-x-x-x-x-x-x-x-x-x-x-x-x-x-x-x-x-x-x-x-x-x-x-x-x-x-x-x-x-x-x---------|
Ab|--7-7-7-7-7-7-7-7-7-7-7-7-7-7-7-7-7-7-7-7-7-7-7-7-7-7-7-7-7-7-7-7---------|
Eb|--------------------------------------------------------------------------|

Guitar One keeps playing this for the entire verse. If you're playing
better fit vocals. It's played very gently underneath the octaves.

VERSE ONE (0:05)

   (x2)
eb|--------------------------------------------------------------------------|
Bb|--------------------------------------------------------------------------|
Gb|--------------------------------------------------------------------------|
Db|--------------------------------------------------------------------------|
Ab|---------2-2-2-2-2-2-2-2-2-2-2-2-2-2-2-2-2-2-2-2-2-2-2-2-2-2-2-2-2-2-2-2--|
Eb|---------0-0-0-0-0-0-0-0-0-0-0-0-0-0-0-0-0-0-0-0-0-0-0-0-0-0-0-0-0-0-0-0--|
         P.M--------------------------------------------------------------|
  1  go                                                           At the least
  2                                                               That I didn't 

eb|--------------------------------------------------------------------------|
Bb|--------------------------------------------------------------------------|
Gb|--------------------------------------------------------------------------|
Db|--6-6-6-6-6-6-6-6-6-6-6-6-6-6-6-6-----------------------------------------|
Ab|--4-4-4-4-4-4-4-4-4-4-4-4-4-4-4-4--6-6-6-6-6-6-6-6-6-6-6-6-X-X-X-X--------|
Eb|-----------------------------------4-4-4-4-4-4-4-4-4-4-4-4-X-X-X-X--------|
    P.M------------------------------------------------------|
  1       to check in                     miss her grin
  2         never wanna see               you again  

PRECHORUS ONE (0:21)

   (x2)
eb|--------------------------------------------------------------------------|
Bb|--------------------------------------------------------------------------|
Gb|----------------------------6--6-6-6-6-6----------------------------------|
Db|------------2---------------6--6-6-6-6-6-----6--6-6-6--4-4-4--------------|
Ab|------------2-- LET RING ---4--4-4-4-4-4-----6--6-6-6--4-4-4--------------|
Eb|------------0--------------------------------4--4-4-4--2-2-2--------------|
  1  And my  heart...          this is so hard, this is so hard
  2  And my  heart...          this is so hard, this is so hard

CHORUS ONE (0:36)

   (x1)
eb|--------------------------------------------------------------------------|
Bb|--------------------------------------------------------------------------|
Gb|--------------------------------------6-6-6-6-6-6-6-6---------------------|
Db|--2--------------2-2----2-2-----------6-6-6-6-6-6-6-6--6-6-6-6-6-4-4-4----|
Ab|--2-- LET RING --2-2----2-2-- PAUSE --4-4-4-4-4-4-4-4--6-6-6-6-6-4-4-4----|
Eb---0--------------0-0----0-0----------------------------4-4-4-4-4-2-2-2----|
                    P.M-------|
	 the walls                        know I'm coming to your room

   (x1)
eb|--------------------------------------------------------------------------|
Bb|--------------------------------------------------------------------------|
Gb|-----------------------------6-------------------------------6------------|
Db|--2-2-2-2-2-2-2-2-2-2-2-2----6----2-2-2-2-2-2-2-2-2-2-2-2----6------------|
Ab|--2-2-2-2-2-2-2-2-2-2-2-2----4----2-2-2-2-2-2-2-2-2-2-2-2----4------------|
Eb|--0-0-0-0-0-0-0-0-0-0-0-0---------0-0-0-0-0-0-0-0-0-0-0-0-----------------|
      Do you hide all the  animals   The other boys bought for you

    GUITAR ONE (x1)
eb|---------------------------------------------------------------------------------|
Bb|---------------------------------------------------------------------------------|
Gb|---------------------------------------------------------------------------------|
Db|--6-6-6-6-6-6-6-6-6-6-6-6-6-6-6-6-6-6-6-6-6-6-6-6---4-4---4-4-4-4---2------------|
Ab|--6-6-6-6-6-6-6-6-6-6-6-6-6-6-6-6-6-6-6-6-6-6-6-6---4-4---4-4-4-4---2  LET RING  |
Eb|--4-4-4-4-4-4-4-4-4-4-4-4-4-4-4-4-4-4-4-4-4-4-4-4---2-2---2-2-2-2---0------------|
                                                       I wasn't surprised

    GUITAR TWO (x1) (Hit the octaves, then join in on the F# at end)
eb|---------------------------------------------------------------------------------|
Bb|---------------------------------------------------------------------------------|
Gb|--9-9-9-9-9-9-9-9-8-8-8-8-8-8-8-8-11-11-11-11-11-11-11-11------------------------|
Db|--x-x-x-x-x-x-x-x-x-x-x-x-x-x-x-x--x--x--x--x--x--x--x--x------------------------|
Ab|--7-7-7-7-7-7-7-7-6-6-6-6-6-6-6-6--9--9--9--9--9--9--9--9------------------------|
Eb|---------------------------------------------------------------------------------|

VERSE TWO (0:51)
 
   (x2)
eb|--------------------------------------------------------------------------|
Bb|--------------------------------------------------------------------------|
Gb|--------------------------------------------------------------------------|
Db|--------------------------------------------------------------------------|
Ab|---------2-2-2-2-2-2-2-2-2-2-2-2-2-2-2-2-2-2-2-2-2-2-2-2-2-2-2-2-2-2-2-2--|
Eb|---------0-0-0-0-0-0-0-0-0-0-0-0-0-0-0-0-0-0-0-0-0-0-0-0-0-0-0-0-0-0-0-0--|
         P.M--------------------------------------------------------------|
                                                               1. She was
         2.   And   I   kept   my  distance                    I  was  the

eb|--------------------------------------------------------------------------|
Bb|--------------------------------------------------------------------------|
Gb|--------------------------------------------------------------------------|
Db|--6-6-6-6-6-6-6-6-6-6-6-6-6-6-6-6-----------------------------------------|
Ab|--4-4-4-4-4-4-4-4-4-4-4-4-4-4-4-4--6-6-6-6-6-6-6-6-6-6-6-6-4-4-4-4--------|
Eb|-----------------------------------4-4-4-4-4-4-4-4-4-4-4-4-2-2-2-2--------|
    P.M------------------------------------------------------|
     1.     looking hot                    smoking pot
     2.     good boy                   one, two, three!

PRECHORUS TWO (1:06)

   (x2)
eb|--------------------------------------------------------------------------|
Bb|--------------------------------------------------------------------------|
Gb|--------------------------------------------------------------------------|
Db|--2-2-2-2-2-2-2-2-2-2-2-2-2-2-2-2-2-2-2-2-2-2-2-2-2-2-2-2-2-2-2-2---------|
Ab|--2-2-2-2-2-2-2-2-2-2-2-2-2-2-2-2-2-2-2-2-2-2-2-2-2-2-2-2-2-2-2-2 S T O P |
Eb|--0-0-0-0-0-0-0-0-0-0-0-0-0-0-0-0-0-0-0-0-0-0-0-0-0-0-0-0-0-0-0-0---------|
  P.M---------------------------------------------------------------|
  1   heart            caves      in     when  I    look  at         you
  2   heart            caves      in     when  I    look   at         you

eb|--------------------------------------------------------------------------|
Bb|--------------------------------------------------------------------------|
Gb|--6--6-6-6-6-6------------------------------------------------------------|
Db|--6--6-6-6-6-6--------6--6-6-6--4-4-4-------------------------------------|
Ab|--4--4-4-4-4-4--------6--6-6-6--4-4-4-------------------------------------|
Eb|----------------------4--4-4-4--2-2-2-------------------------------------|
  1   this is so hard    this is so hard
  2   this is so hard    this is so hard

CHORUS TWO (1:21):

   (x1)
eb|--------------------------------------------------------------------------|
Bb|--------------------------------------------------------------------------|
Gb|--------------------------------------6-6-6-6-6-6-6-6---------------------|
Db|--2--------------2-2----2-2-----------6-6-6-6-6-6-6-6--6-6-6-6-6-4-4-4----|
Ab|--2-- LET RING --2-2----2-2-- PAUSE --4-4-4-4-4-4-4-4--6-6-6-6-6-4-4-4----|
Eb---0--------------0-0----0-0----------------------------4-4-4-4-4-2-2-2----|
                    P.M-------|
	the walls                        know I'm coming to your room

   (x1)
eb|--------------------------------------------------------------------------|
Bb|--------------------------------------------------------------------------|
Gb|-----------------------------6-------------------------------6------------|
Db|--2-2-2-2-2-2-2-2-2-2-2-2----6----2-2-2-2-2-2-2-2-2-2-2-2----6------------|
Ab|--2-2-2-2-2-2-2-2-2-2-2-2----4----2-2-2-2-2-2-2-2-2-2-2-2----4------------|
Eb|--0-0-0-0-0-0-0-0-0-0-0-0---------0-0-0-0-0-0-0-0-0-0-0-0-----------------|
      Do you hide all the  animals   The other boys bought for you

    GUITAR ONE (x1)
eb|--------------------------------------------------------------------------|
Bb|--------------------------------------------------------------------------|
Gb|--------------------------------------------------------------------------|
Db|--6-6-6-6-6-6-6-6-6-6-6-6-6-6-6-6-6-6-6-6-6-6-6-6--4-4-4-4-4-4-4-4--------|
Ab|--6-6-6-6-6-6-6-6-6-6-6-6-6-6-6-6-6-6-6-6-6-6-6-6--4-4-4-4-4-4-4-4--------|
Eb|--4-4-4-4-4-4-4-4-4-4-4-4-4-4-4-4-4-4-4-4-4-4-4-4--2-2-2-2-2-2-2-2--------|
                                                         

    GUITAR TWO (x1) (Hit octaves with rhythm's G#, then ^^ join in on the F#)
eb|--------------------------------------------------------------------------|
Bb|--------------------------------------------------------------------------|
Gb|--9-9-9-9-9-9-9-9-8-8-8-8-8-8-8-8-11-11-11-11-11-11-11-11-----------------|
Db|--x-x-x-x-x-x-x-x-x-x-x-x-x-x-x-x--x--x--x--x--x--x--x--x-----------------|
Ab|--7-7-7-7-7-7-7-7-6-6-6-6-6-6-6-6--9--9--9--9--9--9--9--9-----------------|
Eb|--------------------------------------------------------------------------|

BRIDGE (1:35)

   GUITAR ONE (x2):
eb|--------------------------------------------------------------------------|
Bb|--------------------------------------------------------------------------|
Gb|--------------------------------------------------------------------------|
Db|--2-2-2-2-2-2-2-2-2-2-2-2-2-2-2-2-2-2-2-2-2-2-2-2-2-2-2-2-2-2-2-2---------|
Ab|--2-2-2-2-2-2-2-2-2-2-2-2-2-2-2-2-2-2-2-2-2-2-2-2-2-2-2-2-2-2-2-2---------|
Eb|--0-0-0-0-0-0-0-0-0-0-0-0-0-0-0-0-0-0-0-0-0-0-0-0-0-0-0-0-0-0-0-0---------|

eb|--------------------------------------------------------------------------|
Bb|--------------------------------------------------------------------------|
Gb|--6-6-6-6-6-6-6-6-6-6-6-6-6-6-6-6-----------------------------------------|
Db|--6-6-6-6-6-6-6-6-6-6-6-6-6-6-6-6-6-6-6-6-6-6-6-6-6-6-6-6-4-4-4-4---------|
Ab|--4-4-4-4-4-4-4-4-4-4-4-4-4-4-4-4-6-6-6-6-6-6-6-6-6-6-6-6-4-4-4-4---------|
Eb|----------------------------------4-4-4-4-4-4-4-4-4-4-4-4-2-2-2-2---------|

   GUITAR TWO (x1)
eb|--------------------------------------------------------------------------|
Bb|--------------------------------------------------------------------------|
Gb|--11---9-8-9---11-----9p8-11---9p8-9---9p8-11---9p8-9---------------------|
Db|--------------------------------------------------------------------------|
Ab|--------------------------------------------------------------------------|
Eb|--------------------------------------------------------------------------|
    There may be a couple notes missing (Improvise!)
eb|--------------------------------------------------------------------------|
Bb|--------------------------------------------------------------------------|
Gb|--9--9--8-----------8--9--8--------------11---9---8---9-------------------|
Db|-----------9------9---------9----------9----9---9---9---------------------|
Ab|-- (1:43) ----- (1:45) ------------- (1:48) ------------------------------|
Eb|--------------------------------------------------------------------------|

BREAKDOWN FOR ALL THE ANGRY BROS (1:50)

   GUITAR ONE (x2):
eb|-------------------------------------------------------------|------------|
Bb|------------------------------- -----------------------------|------------|
Gb|-------------------------6--6--6--6--6--6--------------------|------ LET  |
Db|---2-2------2-2--2-2-----6--6--6--6--6--6---6--6--6--4--4--4-|--2--- RING |
Ab|---2-2------2-2--2-2-----4--4--4--4--4--4---6--6--6--4--4--4-|--2---------|
Eb|---0-0------0-0--0-0------------------------4--4--4--2--2--2-|--0---------|
     P.M----------------|                                       *2nd time only*

   GUITAR TWO:
eb|------------------------------------||------------------------------------|
Bb|------------------------------------||------------------------------------|
Gb|----8-----9-----8---11-----9-----8--||----8-----9-----8---11-----9-8-8-8--|
Db|--9---9-9---9-9---9----9-9---9-9----||--9---9-9---9-9---9----9-9---------9|
Ab|------------------------------------||------------------------------------|
Eb|      PLAY THIS THREE TIMES (x3)    ||   THEN FINISH OFF WITH THIS (x1)   |

PIANO MELODY (2:05)

   (x4)
eb|------------------------------------|
Bb|------------------------------------|
Gb|----------11--9--8------------------|
Db|--------------------9---------------|
Ab|------------------------------------|
Eb|------------------------------------|

NOTE: The melody is played three times, then once distorted and barely audible. 
If you're sticking with (x3), give a pause before the final chorus

CHORUS THREE (2:12):

   (x1)
eb|--------------------------------------------------------------------------|
Bb|--------------------------------------------------------------------------|
Gb|--------------------------------------------------------------------------|
Db|--2-2-2-2-2-2-2-2-2-2-2-2-2-2-2-2-2-2-2-2-2-2-2-2-2-2-2-2-2-2-2-2---------|
Ab|--2-2-2-2-2-2-2-2-2-2-2-2-2-2-2-2-2-2-2-2-2-2-2-2-2-2-2-2-2-2-2-2---------|
Eb|--0-0-0-0-0-0-0-0-0-0-0-0-0-0-0-0-0-0-0-0-0-0-0-0-0-0-0-0-0-0-0-0---------|
      Pictures off the walls                      

   (x1)
eb|--------------------------------------------------------------------------|
Bb|--------------------------------------------------------------------------|
Gb|--6-6-6-6-6-6-6-6-6-6-6-6-6-6-6-6-----------------------------------------|
Db|--6-6-6-6-6-6-6-6-6-6-6-6-6-6-6-6-6-6-6-6-6-6-6-6-6-6-6-6-4-4-4-4---------|
Ab|--4-4-4-4-4-4-4-4-4-4-4-4-4-4-4-4-6-6-6-6-6-6-6-6-6-6-6-6-4-4-4-4---------|
Eb|----------------------------------4-4-4-4-4-4-4-4-4-4-4-4-2-2-2-2---------|
      know I'm coming                  to     your      rooom

   (x1)
eb|--------------------------------------------------------------------------|
Bb|--------------------------------------------------------------------------|
Gb|-----------------------------6-------------------------------6------------|
Db|--2-2-2-2-2-2-2-2-2-2-2-2----6----2-2-2-2-2-2-2-2-2-2-2-2----6------------|
Ab|--2-2-2-2-2-2-2-2-2-2-2-2----4----2-2-2-2-2-2-2-2-2-2-2-2----4------------|
Eb|--0-0-0-0-0-0-0-0-0-0-0-0---------0-0-0-0-0-0-0-0-0-0-0-0-----------------|
      Do you hide all the  animals   The other boys bought for you

    GUITAR ONE (x1)
eb|--------------------------------------------------------------------------|
Bb|--------------------------------------------------------------------------|
Gb|--------------------------------------------------------------------------|
Db|--6-6-6-6-6-6-6-6-6-6-6-6-6-6-6-6-6-6-6-6-6-6-6-6--4-4-4-4-4-4-4-4--------|
Ab|--6-6-6-6-6-6-6-6-6-6-6-6-6-6-6-6-6-6-6-6-6-6-6-6--4-4-4-4-4-4-4-4--------|
Eb|--4-4-4-4-4-4-4-4-4-4-4-4-4-4-4-4-4-4-4-4-4-4-4-4--2-2-2-2-2-2-2-2--------|
                                                         

    GUITAR TWO (x1)(Hit octaves with rhythm's G#, then ^^ join in on the F#)
eb|--------------------------------------------------------------------------|
Bb|--------------------------------------------------------------------------|
Gb|--9-9-9-9-9-9-9-9-8-8-8-8-8-8-8-8-11-11-11-11-11-11-11-11-----------------|
Db|--x-x-x-x-x-x-x-x-x-x-x-x-x-x-x-x--x--x--x--x--x--x--x--x-----------------|
Ab|--7-7-7-7-7-7-7-7-6-6-6-6-6-6-6-6--9--9--9--9--9--9--9--9-----------------|
Eb|--------------------------------------------------------------------------|

FINAL CHORUS / OUTRO RIFF (2:27)

   (x1)
eb|--------------------------------------------------------------------------|
Bb|--------------------------------------------------------------------------|
Gb|--------------------------------------------------------------------------|
Db|--2-2-2-2-2-2-2-2-2-2-2-2-2-2-2-2-2-2-2-2-2-2-2-2-2-2-2-2-2-2-2-2---------|
Ab|--2-2-2-2-2-2-2-2-2-2-2-2-2-2-2-2-2-2-2-2-2-2-2-2-2-2-2-2-2-2-2-2---------|
Eb|--0-0-0-0-0-0-0-0-0-0-0-0-0-0-0-0-0-0-0-0-0-0-0-0-0-0-0-0-0-0-0-0---------|
      Pictures off the walls                      

   (x1)
eb|--------------------------------------------------------------------------|
Bb|--------------------------------------------------------------------------|
Gb|--6-6-6-6-6-6-6-6-6-6-6-6-6-6-6-6-----------------------------------------|
Db|--6-6-6-6-6-6-6-6-6-6-6-6-6-6-6-6-6-6-6-6-6-6-6-6-6-6-6-6-4-4-4-4---------|
Ab|--4-4-4-4-4-4-4-4-4-4-4-4-4-4-4-4-6-6-6-6-6-6-6-6-6-6-6-6-4-4-4-4---------|
Eb|----------------------------------4-4-4-4-4-4-4-4-4-4-4-4-2-2-2-2---------|
      know I'm coming                  to     your      rooom

   (x1)
eb|--------------------------------------------------------------------------|
Bb|--------------------------------------------------------------------------|
Gb|-----------------------------6-------------------------------6------------|
Db|--2-2-2-2-2-2-2-2-2-2-2-2----6----2-2-2-2-2-2-2-2-2-2-2-2----6------------|
Ab|--2-2-2-2-2-2-2-2-2-2-2-2----4----2-2-2-2-2-2-2-2-2-2-2-2----4------------|
Eb|--0-0-0-0-0-0-0-0-0-0-0-0---------0-0-0-0-0-0-0-0-0-0-0-0-----------------|
      Do you hide all the  animals   The other boys bought     you

    GUITAR ONE (x1)
eb|--------------------------------------------------------------------------|
Bb|--------------------------------------------------------------------------|
Gb|--------------------------------------------------------------------------|
Db|--6-6-6-6-6-6-6-6-6-6-6-6-6-6-6-6----6---8---9---6-----------2------------|
Ab|--6-6-6-6-6-6-6-6-6-6-6-6-6-6-6-6----6---8---9---6-- Woah! --2-- LET RING |
Eb|--4-4-4-4-4-4-4-4-4-4-4-4-4-4-4-4----4---6---7---4-----------0------------|
                                                         

    GUITAR TWO (x1) (Hit octaves with rhythm's G#)
eb|--------------------------------------------------------------------------|
Bb|--------------------------------------------------------------------------|
Gb|--9-9-9-9-9-9-9-9-8-8-8-8-8-8-8-8-----------------------------------------|
Db|--x-x-x-x-x-x-x-x-x-x-x-x-x-x-x-x----6---8---9---6-----------2------------|
Ab|--7-7-7-7-7-7-7-7-6-6-6-6-6-6-6-6----6---8---9---6-- Woah! --2-- LET RING |
Eb|-------------------------------------4---6---7---4-----------0------------|





Comments


Popular Man Overboard tabs & chords
Atlas Chords
Dude, Are You Kidding Me? Chords
Where I Left You Chords
Fm Dial Style 2 Tabs
Love Your Friends Die Laughing Electric Tabs
Somethings Weird Tabs
They Dont Make Em Like They Used To Tabs
Atlas Ukulele
Disconnect Ukulele
The Absolute Worst Ukulele


Song lyrics



↑ Back to top | Tablatures and chords are parodies/interpretations of the original songs. You may use it for private study, scholarship, research or language learning purposes only
© 2014 AZChords.com Contact us | Privacy policy | DMCA | Add/correct tabs | Request tabs | Top 50 tabs