» » »

Dear You Tabs (ver.1)

Artists:  A B C D E F G H I J K L M N O P Q R S T U V W X Y Z # 

Dear You Tabs (ver.1)

Man Overboard
Rating:
5/5 (5 votes)

Tabs too difficult? Try these video lessons and learn fast.
                -----------------------------------------------------------------
Dear You --- Man Overboard
-----------------------------------------------------------------

Bare with me; 1st tab, sorry if it's not put together very well.  But this is how I play it!
Have fun, this is one of the greatest songs ever written!

Tuning:  1/2 step down

listen to the song to figure out the strumming you'll get it :)!

Intro:
e|--------------------0-----2-----0-----0-----2-----0------------|
B|--5--------7--------3-----3-----2-----3-----3-----2------------|
G|--4--------6--------2-----2-----2-----2-----2-----2------------|
D|--2--------4--------0-----0-----0-----0-----0-----0------------|
A|---------------------------------------------------------------|
E|---------------------------------------------------------------|

e|--------------------0------------------------------------------|
B|--5--------7--------3------------------------------------------|
G|--4--------6--------2------------------------------------------|
D|--2--------4--------0------------------------------------------|
A|---------------------------------------------------------------|
E|---------------------------------------------------------------|

Verse:
    Dear you... Of the last... Can put together...
e|-----------------------------0---------------------------------|
B|--5-------------7------------3---------------------------------|
G|--4-------------6------------2---------------------------------|
D|--2-------------4------------0---------------------------------|
A|---------------------------------------------------------------|
E|---------------------------------------------------------------|


    Fading away...  Put things...  You've always been the only one...
e|---------------------------------0-----------------------------|
B|--5---------------7--------------3-----------------------------|
G|--4---------------6--------------2-----------------------------|
D|--2---------------4--------------0-----------------------------|
A|---------------------------------------------------------------|
E|---------------------------------------------------------------|

Prechorus/chorus:
    I do...   Live everyday... Of falling back into you...
e|------------0--------------------------------------------------|
B|--7----5----3----------------5--------------------7--------5---|
G|--6----4----2----------------4--------------------6--------4---|
D|--4----2----0----------------2--------------------4--------2---|
A|---------------------------------------------------------------|
E|---------------------------------------------------------------|
    We hold heads high while bullets fly...
e|--0------------------------------------------------------------|
B|--3--------------------------------0--------5-5--5-5-----------|
G|--2--------------------------------2--------4-4--4-4-----------|
D|--0--------------------------------2--------2-2--2-2-----------|
A|---------------------------------------------------------------|
E|---------------------------------------------------------------|

Repeat the verse: 

Last drink of a lonely night and I wanted was to hold you.
I wrote some lonely lyrics to paint a picture to let you know.
Bleeding to death, laying in your bed I
realized that I'll always need you.
you've always been the only one and I need you to know I do...

live everyday without any regret of falling back into you.
We hold heads high while bullets fly.

Breakdown:
                     
e|------------0--------------------------------------------------|
B|--7----5----3--------------------------------------------------|
G|--6----4----2------2----2---------4----------------------------|
D|--4----2----0------4----0----2----2----------------------------|
A|-----------------------------0---------------------------------|
E|---------------------------------------------------------------|
    And I know that I've been asking a lot but...
e|---------------------------------------------------------------|
B|---------------------------------------------------------------|
G|--2------------------------------------------------------------|
D|--4------------------------------------------------------------|
A|---------------------------------------------------------------|
E|---------------------------------------------------------------|
    Now?  I've got the whole world figured out
e|---------------------------------------------------------------|
B|---------------------------------------------------------------|
G|--2------------------------------------------------------------|
D|--0--------------------------------------2---------------------|
A|-----------------------------------------0---------------------|
E|---------------------------------------------------------------|
    I've got the whole world figured out.
e|---------------------------------------------------------------|
B|---------------------------------------------------------------|
G|---------------4-----------------------------------------------|
D|---------------2-----------------------------------------------|
A|---------------------------------------------------------------|
E|---------------------------------------------------------------|


Lyrics for the whole song:

Dear you,
This has got to to be one
of the last heartfelt things I
can put together on a piece of paper
to let you know.

Fading away at a sickening rate can
put things in perspective for you.
You've always been the only one and I need you to know I do

live everyday without any regret of falling back into you.
We hold heads high while bullets fly.

Last drink of a lonely night and I wanted was to hold you.
I wrote some lonely lyrics to paint a picture to let you know.
Bleeding to death, laying in your bed I
realized that I'll always need you.
you've always been the only one and I need you to know I do...

live everyday without any regret of falling back into you.
We hold heads high while bullets fly.

And I know that I've been asking a lot but
would you run away with me right now?
I've got the whole world figured out (And I know)
I've got the whole world figured out.

And I know that I've been asking a lot but
would you run away with me right now?
I've got the whole world figured out.
I've got the whole world figured out.

And I know that I've been asking a lot but
would you run away with me right now?
I've got the whole world figured out.
I've got the whole world figured out. 
            
Tabs too difficult? Try these video lessons and learn fast.


comments powered by Disqus
↑ Back to top | Tablatures and chords are parodies/interpretations of the original songs. You may use it for private study, scholarship, research or language learning purposes only