>
 >
Arlington Drive

Arlington Drive Guitar Tabs

Man Overboard - Arlington Drive chords, tabs, tablatures, lyrics

Guitar lessons | Add/correct | Request | Top 50 tabs Artists:  A B C D E F G H I J K L M N O P Q R S T U V W X Y Z 0-9

Arlington Drive Guitar Tabs – Man Overboard

CD, Sheet music, Poster

Do you like Arlington Drive? Share with your friends now
Tabs
------------------------------------------------------------------------------
------------------------------------------------------------------------------

	

Album     : Before We Met : A Collection of Old Songs

Tuning    : Db (Drop D + Half Step Down) 
            Low to High (Db, Ab, Db, Gb, Bb, Eb)
                     OR (C#, G#, C#, F#, A#, D#)

INTRO (0:00)

   (x2)
eb|---------------------------------------------|
Bb|---------------------------------------------|
Gb|--11-11-11-11----11-11-11-11----11-11-11-11--|
Db|--11-11-11-11----11-11-11-11----11-11-11-11--|
Ab|---9--9--9--9-----x--x--x--x-----x--x--x--x--|
Db|---x--x--x--x----11-11-11-11-----9--9--9--9--|

eb|---------------------------------------------|
Bb|---------------------------------------------|
Gb|---------------------------------------------|
Db|--4-4-4---7--7-7-7-7-7-7-7-7-7-7-7-7-7-7-7---|
Ab|--4-4-4---7--7-7-7-7-7-7-7-7-7-7-7-7-7-7-7---|
Db|--4-4-4---7--7-7-7-7-7-7-7-7-7-7-7-7-7-7-7---|

VERSE ONE (0:13)

eb|---------------------------------------------|
Bb|---------------------------------------------|
Gb|--11-11-11-11----11-11-11-11----11-11-11-11--|
Db|--11-11-11-11----11-11-11-11----11-11-11-11--|
Ab|---9--9--9--9-----x--x--x--x-----x--x--x--x--|
Db|---x--x--x--x----11-11-11-11-----9--9--9--9--|
                        Well, I don't know    

eb|---------------------------------------------|
Bb|---------------------------------------------|
Gb|---------------------------------------------|
Db|--4-4-4---7--7-7-7-7-7-7-7-7-7-7-7-7-7-7-7---|
Ab|--4-4-4---7--7-7-7-7-7-7-7-7-7-7-7-7-7-7-7---|
Db|--4-4-4---7--7-7-7-7-7-7-7-7-7-7-7-7-7-7-7---|
      how you do this   

eb|---------------------------------------------|
Bb|---------------------------------------------|
Gb|--11-11-11-11----11-11-11-11----11-11-11-11--|
Db|--11-11-11-11----11-11-11-11----11-11-11-11--|
Ab|---9--9--9--9-----x--x--x--x-----x--x--x--x--|
Db|---x--x--x--x----11-11-11-11-----9--9--9--9--|
                        And the path we're on
S
eb|---------------------------------------------|
Bb|---------------------------------------------|
Gb|---------------------------------------------|
Db|--4-4-4---0--0-0--0--0-2--2-2--2-2-----------|
Ab|--4-4-4---0--0-0--0--0-2--2-2--2-2-----------|
Db|--4-4-4---0--0-0--0--0-2--2-2--2-2-----------|
      mis -  leading us       home

eb|---------------------------------------------|
Bb|---------------------------------------------|
Gb|--11-11-11-11----11-11-11-11----11-11-11-11--|
Db|--11-11-11-11----11-11-11-11----11-11-11-11--|
Ab|---9--9--9--9-----x--x--x--x-----x--x--x--x--|
Db|---x--x--x--x----11-11-11-11-----9--9--9--9--|
                        And    I  don't know 

eb|---------------------------------------------|
Bb|---------------------------------------------|
Gb|---------------------------------------------|
Db|--4-4-4---7--7-7-7-7-7-7-7-7-7-7-7-7-7-7-7---|
Ab|--4-4-4---7--7-7-7-7-7-7-7-7-7-7-7-7-7-7-7---|
Db|--4-4-4---7--7-7-7-7-7-7-7-7-7-7-7-7-7-7-7---|
      what to do, kid

eb|---------------------------------------------|
Bb|---------------------------------------------|
Gb|--11-11-11-11----11-11-11-11----11-11-11-11--|
Db|--11-11-11-11----11-11-11-11----11-11-11-11--|
Ab|---9--9--9--9-----x--x--x--x-----x--x--x--x--|
Db|---x--x--x--x----11-11-11-11-----9--9--9--9--|
                     The sun is      up

eb|----------|
Bb|----------|
Gb|----------|
Db|--4-4-4---|
Ab|--4-4-4---|
Db|--4-4-4---|
   And I feel


CHORUS ONE (0:36)

   (x2)
eb|------------------------------------------------|----------|
Bb|------------------------------------------------| END WITH |
Gb|------------------------------------------------|----------|
Db|--0---0-0--0--0-0---2--2--2-2---4--4-4--4--4-4--|---2-2----|
Ab|--0---0-0--0--0-0---2--2--2-2---4--4-4--4--4-4--|---2-2----|
Db|--0---0-0--0--0-0---2--2--2-2---4--4-4--4--4-4--|---2-2----|
  1  A l i v e like I haven't in a long time
  2  A l i v e like I haven't in a long time when I

INTRO RIFF (0:48):

   (x2)
eb|---------------------------------------------|
Bb|---------------------------------------------|
Gb|--11-11-11-11----11-11-11-11----11-11-11-11--|
Db|--11-11-11-11----11-11-11-11----11-11-11-11--|
Ab|---9--9--9--9-----x--x--x--x-----x--x--x--x--|
Db|---x--x--x--x----11-11-11-11-----9--9--9--9--|

eb|---------------------------------------------|
Bb|---------------------------------------------|
Gb|---------------------------------------------|
Db|--4-4-4---7--7-7-7-7-7-7-7-7-7-7-7-7-7-7-7---|
Ab|--4-4-4---7--7-7-7-7-7-7-7-7-7-7-7-7-7-7-7---|
Db|--4-4-4---7--7-7-7-7-7-7-7-7-7-7-7-7-7-7-7---|


VERSE TWO (1:02)

eb|---------------------------------------------|
Bb|---------------------------------------------|
Gb|--11-11-11-11----11-11-11-11----11-11-11-11--|
Db|--11-11-11-11----11-11-11-11----11-11-11-11--|
Ab|---9--9--9--9-----x--x--x--x-----x--x--x--x--|
Db|---x--x--x--x----11-11-11-11-----9--9--9--9--|
                        Looking       back's 

eb|---------------------------------------------|
Bb|---------------------------------------------|
Gb|---------------------------------------------|
Db|--4-4-4---7--7-7-7-7-7-7-7-7-7-7-7-7-7-7-7---|
Ab|--4-4-4---7--7-7-7-7-7-7-7-7-7-7-7-7-7-7-7---|
Db|--4-4-4---7--7-7-7-7-7-7-7-7-7-7-7-7-7-7-7---|
      getting me down (It's harder to trudge...)

eb|---------------------------------------------|
Bb|---------------------------------------------|
Gb|--11-11-11-11----11-11-11-11----11-11-11-11--|
Db|--11-11-11-11----11-11-11-11----11-11-11-11--|
Ab|---9--9--9--9-----x--x--x--x-----x--x--x--x--|
Db|---x--x--x--x----11-11-11-11-----9--9--9--9--|
                        I'm writing this

eb|---------------------------------------------|
Bb|---------------------------------------------|
Gb|---------------------------------------------|
Db|--4-4-4---0--0-0--0--0-2--2-2--2-2-----------|
Ab|--4-4-4---0--0-0--0--0-2--2-2--2-2-----------|
Db|--4-4-4---0--0-0--0--0-2--2-2--2-2-----------|
     for old friends that I miss

eb|---------------------------------------------|
Bb|---------------------------------------------|
Gb|--11-11-11-11----11-11-11-11----11-11-11-11--|
Db|--11-11-11-11----11-11-11-11----11-11-11-11--|
Ab|---9--9--9--9-----x--x--x--x-----x--x--x--x--|
Db|---x--x--x--x----11-11-11-11-----9--9--9--9--|
                        To start and end

eb|---------------------------------------------|
Bb|---------------------------------------------|
Gb|---------------------------------------------|
Db|--4-4-4---7--7-7-7-7-7-7-7-7-7-7-7-7-7-7-7---|
Ab|--4-4-4---7--7-7-7-7-7-7-7-7-7-7-7-7-7-7-7---|
Db|--4-4-4---7--7-7-7-7-7-7-7-7-7-7-7-7-7-7-7---|
      things right way (I'm writing to tell...)

eb|---------------------------------------------|
Bb|---------------------------------------------|
Gb|--11-11-11-11----11-11-11-11----11-11-11-11--|
Db|--11-11-11-11----11-11-11-11----11-11-11-11--|
Ab|---9--9--9--9-----x--x--x--x-----x--x--x--x--|
Db|---x--x--x--x----11-11-11-11-----9--9--9--9--|
                       Gather        up

eb|----------|
Bb|----------|
Gb|----------|
Db|--4-4-4---|
Ab|--4-4-4---|
Db|--4-4-4---|
     I feel

CHORUS TWO (1:24)

   (x2)
eb|------------------------------------------------|
Bb|------------------------------------------------|
Gb|------------------------------------------------|
Db|--0---0-0--0--0-0---2--2--2-2---4--4-4--4--4-4--|
Ab|--0---0-0--0--0-0---2--2--2-2---4--4-4--4--4-4--|
Db|--0---0-0--0--0-0---2--2--2-2---4--4-4--4--4-4--|
  1  A l i v e like I haven't in a long time
  2  A l i v e like I haven't in a long time like I

eb|---------------------------------------------|
Bb|---------------------------------------------|
Gb|---------------------------------------------|
Db|--2--2--2-2----0--0-0--0--0-0----------------|
Ab|--2--2--2-2----0--0-0--0--0-0----------------|
Db|--2--2--2-2----0--0-0--0--0-0----------------|
     haven't in a long time, like I

eb|--------------------------------------------------|
Bb|--------------------------------------------------|
Gb|--------------------------------------------------|
Db|--2--2--2-2----4--4-4-4--4-4-4-4-4-4-4-4-4-4-4-4--|
Ab|--2--2--2-2----4--4-4-4--4-4-4-4-4-4-4-4-4-4-4-4--|
Db|--2--2--2-2----4--4-4-4--4-4-4-4-4-4-4-4-4-4-4-4--|
     haven't in a long time

BRIDGE (1:43)

   (x4)
eb|--------------------------------------------------------------------------|
Bb|--------------------------------------------------------------------------|
Gb|--7-7-7-7-7-7-7-7-7-7-7-7-7-----7-7--9--11-11-11-11-11-11-11-11-----------|
Db|--7-7-7-7-7-7-7-7-7-7-7-7-7-----7-7--9--11-11-11-11-11-11-11-11-----------|
Ab|--5-5-5-5-5-5-5-5-5-5-5-5-5-----x-x--x---x--x--x--x--x--x--x--x-----------|
Db|--------------------------------7-7--9--11-11-11-11-11-11-11-11-----------|
  1       Is this a lesson in                 is this a lesson in
  2       I mapped it all out                 I woke up this morning
  3       Is this a lesson in                 is this a lesson in
  4       I mapped it all out                 I woke up this morning

eb|---------------------------------------------|
Bb|---------------------------------------------|
Gb|--11-11-11-11----9-9-9-9---------------------|
Db|--11-11-11-11----9-9-9-9---------------------|
Ab|---9--9--9--9----7-7-7-7---------------------|
Db|---------------------------------------------|
  1   telling   the     truth?
  2   circles were drifting a-
  3   telling   the     truth?
  4   circles were drifting a-

FINAL CHORUS / OUTRO (2:10) 

   (x4)  
eb|--------------------------------------------------------------------------|
Bb|--------------------------------------------------------------------------|
Gb|--7-7-7-7-7-7-7-7-9-9-9-9-9-9-9-9-11-11-11-11-11-11-11-11-9-9-9-9-9-9-9-9-|
Db|--7-7-7-7-7-7-7-7-9-9-9-9-9-9-9-9-11-11-11-11-11-11-11-11-9-9-9-9-9-9-9-9-|
Ab|--5-5-5-5-5-5-5-5-7-7-7-7-7-7-7-7--9--9--9--9--9--9--9--9-7-7-7-7-7-7-7-7-|
Db|--------------------------------------------------------------------------|
  1    -part
  2
  3    Alive  like I  haven't in a   long time,    like I      haven't in a
  4    Alive  like I  haven't in a   long time,    like I      haven't in a

   (x1)
eb|---------------------------------------------|
Bb|---------------------------------------------|
Gb|--7--7--7-7---7------------------------------|
Db|--7--7--7-7---7------------------------------|
Ab|--5--5--5-5---5------------------------------|
Db|---------------------------------------------|
   long time





Comments


Popular Man Overboard tabs & chords
Decemberism 1 Chords
Montrose Chords
Montrose 1 Chords
The Absolute Worst Chords
Atlas Tabs
Cry Baby 1 Tabs
Disconnect Tabs
Parting Gift Tabs
Montrose Ukulele
Replay Ukulele


Song lyrics



↑ Back to top | Tablatures and chords are parodies/interpretations of the original songs. You may use it for private study, scholarship, research or language learning purposes only
© 2014 AZChords.com Contact us | Privacy policy | DMCA | Add/correct tabs | Request tabs | Top 50 tabs