>
 >
Al Sharpton

Al Sharpton Guitar Tabs

Man Overboard - Al Sharpton chords, tabs, tablatures, lyrics

Guitar lessons | Add/correct | Request | Top 50 tabs Artists:  A B C D E F G H I J K L M N O P Q R S T U V W X Y Z 0-9

Al Sharpton Guitar Tabs – Man Overboard

CD, Sheet music, Poster

Do you like Al Sharpton? Share with your friends now
Bass TabsTabs
------------------------------------------------------------------------------
------------------------------------------------------------------------------



Tuning: Eb (Half Step Down)

INTRO, PART ONE (RHYTHM) (0:02)

   (x1)
eb|----------------------------------------------------------------------------|
Bb|----------------------------------------------------------------------------|
Gb|----------------------------------------------------------------------------|
Db|--7-7---7-7-7---9--9-9--9-9-9-9---5-5---5-5-5---7---7-7---7-7-7-7-----------|
Ab|--7-7---7-7-7---9--9-9--9-9-9-9---5-5---5-5-5---7---7-7---7-7-7-7- S T O P -|
Eb|--5-5---5-5-5---7--7-7--7-7-7-7---3-3---3-3-3---5---5-5---5-5-5-5-----------|

eb|----------------------------------------------------------------------------|
Bb|----------------------------------------------------------------------------|
Gb|----------------------------------------------------------------------------|
Db|----7---7-7-7---9--9-9--9-9-9-9---5-5-5-5-5-5-5-5---7-7-7-7-7-7-7-7---------|
Ab|----7---7-7-7---9--9-9--9-9-9-9---5-5-5-5-5-5-5-5---7-7-7-7-7-7-7-7---------|
Eb|----5---5-5-5---7--7-7--7-7-7-7---3-3-3-3-3-3-3-3---5-5-5-5-5-5-5-5---------|
                                     P.M------------------------------|

INTRO, PART TWO (RHYTHM AND LEAD) (0:11)

   (x1)
eb|----------------------------------------------------------------------------|
Bb|----------------------------------------------------------------------------|   R
Gb|----------------------------------------------------------------------------| 
Db|--7-7---7-7-7---9--9-9--9-9-9-9---5-5---5-5-5---7---7-7---7-7-7-7-----------|   H
Ab|--7-7---7-7-7---9--9-9--9-9-9-9---5-5---5-5-5---7---7-7---7-7-7-7- S T O P -|  
Eb|--5-5---5-5-5---7--7-7--7-7-7-7---3-3---3-3-3---5---5-5---5-5-5-5-----------|   Y

eb|----------------------------------------------------------------------------|   T
Bb|----------------------------------------------------------------------------| 
Gb|--------------------------------------------------------------------7-------|   H
Db|----7---7-7-7---9--9-9--9-9-9-9---5-5-5-5-5-5-5-5---7-7-7-7-7-7-7---7- RING-|
Ab|----7---7-7-7---9--9-9--9-9-9-9---5-5-5-5-5-5-5-5---7-7-7-7-7-7-7---5-------|   M
Eb|----5---5-5-5---7--7-7--7-7-7-7---3-3-3-3-3-3-3-3---5-5-5-5-5-5-5-----------|
                                    P.M-----------------------------|    I know...

   (x1)
eb|----------------------------------------------------------------------------|
Bb|------10--7----------10--7----------------10--8--7--------------------------|   
Gb|--7---------------7---------9----------7-----------9--9--7--9---- S T O P --|   L
Db|----------------------------------------------------------------------------|
Ab|----------------------------------------------------------------------------|
Eb|----------------------------------------------------------------------------|   E

eb|----------------------------------------------------------------------------|
Bb|------10--7----------10--7---------8-8-7-7---------------------7-7----------|   A
Gb|------------------7---------9--------------9-9-7-7-6-6-7-7-9-9------7- RING |   
Db|----------------------------------------------------------------------------|
Ab|----------------------------------------------------------------------------|   D
Eb|----------------------------------------------------------------------------|

VERSE ONE (0:21):
   
   (x1)
eb|----------------------------------------------------------------------------|
Bb|----------------------------------------------------------------------------|
Gb|--------------------------------2----------------------------2--------------|
Db|--------------------------------2----------------------------2-(QUICK)------|
Ab|--------------------------------0----------------------------0--------------|
Eb|----------------------------------------------------------------------------|
     you're sound asleep right now   And you can hear but I'm gonna

   (x1)
eb|----------------------------------------------------------------------------|
Bb|----------------------------------------------------------------------------|
Gb|--4--4-4--4--4-4--4--4--4--4-4-4--------------------------------------------|
Db|--4--4-4--4--4-4--4--4--4--4-4-4-----5--5-5--5--5-5--5--5--5--5-5-5---------| 
Ab|--2--2-2--2--2-2--2--2--2--2-2-2-----5--5-5--5--5-5--5--5--5--5-5-5---------|
Eb|-------------------------------------3--3-3--3--3-3--3--3--3--3-3-3---------|
        P.M     P.M                        P.M     P.M
     explain everything...        darkness into

   (x1)
eb|----------------------------------------------------------------------------|
Bb|----------------------------------------------------------------------------|
Gb|---7------------------------------2-----------------2-----------------------|
Db|---7------------------------------2-----------------2-(QUICK)---------------|
Ab|---5------------------------------0-----------------0-----------------------|
Eb|----------------------------------------------------------------------------|
     dream  You pretty little head could ever come up with

   (x1)
eb|----------------------------------------------------------------------------|
Bb|----------------------------------------------------------------------------|
Gb|--4--4-4--4--4-4--4--4--4--4-4-4--------------------------------------------|
Db|--4--4-4--4--4-4--4--4--4--4-4-4-----5--5-5--5--5--5-5----4-4-4-------------| 
Ab|--2--2-2--2--2-2--2--2--2--2-2-2-----5--5-5--5--5--5-5----4-4-4-------------|
Eb|-------------------------------------3--3-3--3--3--3-3----2-2-2-------------|
        P.M     P.M                        
     Drunk with the thought             right now

PRECHORUS ONE (0:39):

   (x1)
eb|--------------------------------------------------------------------------------|
Bb|--------------------------------------------------------------------------------|
Gb|--------------------------------------------------------------------------------|
Db|--2-----2---2--2--2--5-----5---5--5--5--9-----9---9--9--9--7-----7---7--7--7----|
Ab|--2-----2---2--2--2--5-----5---5--5--5--9-----9---9--9--9--7-----7---7--7--7----|
Eb|--0-0-0-0---0--0--0--3-3-3-3---3--3--3--7-7-7-7---7--7--7--5-5-5-5---5--5--5----|
       P.M.               P.M.               P.M.               P.M.
           I think      I think                  I think      we would know better 

   (x1)
eb|----------------------------------------------------------------------------|
Bb|----------------------------------------------------------------------------|
Gb|----------------------------------------------------------------------------|
Db|---2-2-2-2-2-2-2-2-2-2-2-2-2-2-2-2--5-5-5-5-5-5-5-5-5-5-5-5-5-5-5-5---------|
Ab|---2-2-2-2-2-2-2-2-2-2-2-2-2-2-2-2--5-5-5-5-5-5-5-5-5-5-5-5-5-5-5-5---------|
Eb|---0-0-0-0-0-0-0-0-0-0-0-0-0-0-0-0--3-3-3-3-3-3-3-3-3-3-3-3-3-3-3-3---------|
          I think we're old enough        I think we're old enough

   (x1)                                (Cut this off a little earlier)
eb|----------------------------------------------------------------------------|
Bb|----------------------------------------------------------------------------|
Gb|----------------------------------------------------------------------------|
Db|---9-9-9-9-9-9-9-9-9-9-9-9-9-9-9-9--7-7-7-7-7-7-7-7-7-7-7-7-7-7-7-7---------|
Ab|---9-9-9-9-9-9-9-9-9-9-9-9-9-9-9-9--7-7-7-7-7-7-7-7-7-7-7-7-7-7-7-7---------|
Eb|---7-7-7-7-7-7-7-7-7-7-7-7-7-7-7-7--5-5-5-5-5-5-5-5-5-5-5-5-5-5-5-5---------|
          I think we're old enough         we would know better

CHORUS ONE (0:58):

   (x2)
eb|----------------------------------------------------------------------------|
Bb|----------------------------------------------------------------------------|
Gb|----------------------------------------------------------------------------|
Db|--7-7---7-7-7---9--9-9--9-9-9-9---5-5---5-5-5---7---7-7---7-7-7-7-----------|
Ab|--7-7---7-7-7---9--9-9--9-9-9-9---5-5---5-5-5---7---7-7---7-7-7-7- S T O P -|
Eb|--5-5---5-5-5---7--7-7--7-7-7-7---3-3---3-3-3---5---5-5---5-5-5-5-----------|
  1    I pretend that I'm already someone                faded away
  2    I pretend that I'm already someone                faded away

eb|----------------------------------------------------------------------------|
Bb|----------------------------------------------------------------------------|
Gb|----------------------------------------------------------------------------|
Db|----7---7-7-7---9--9-9--9-9-9-9---5-5-5-5-5-5-5-5---7-7-7-7-7-7-7-7---------|
Ab|----7---7-7-7---9--9-9--9-9-9-9---5-5-5-5-5-5-5-5---7-7-7-7-7-7-7-7---------|
Eb|----5---5-5-5---7--7-7--7-7-7-7---3-3-3-3-3-3-3-3---5-5-5-5-5-5-5-5---------|
                                    P.M-------------------------------|
  1    Woah oh oh oh
  2   I pretend that I'm already someone              already someone

VERSE TWO (1:17):
   
   (x1)
eb|--------------------------------------------------------- ------------------|
Bb|----------------------------------------------------------------------------|
Gb|--7-----------------------------2----------------------------2--------------|
Db|--7-----------------------------2----------------------------2-(QUICK)------|
Ab|--5-----------------------------0----------------------------0--------------|
Eb|----------------------------------------------------------------------------|
        I should be sound asleep   now but I'm not I'm          gonna

   (x1)
eb|----------------------------------------------------------------------------|
Bb|----------------------------------------------------------------------------|
Gb|--4--4-4--4--4-4--4--4--4--4-4-4--------------------------------------------|
Db|--4--4-4--4--4-4--4--4--4--4-4-4-----5--5-5--5--5-5--5--5--5--5-5-5---------| 
Ab|--2--2-2--2--2-2--2--2--2--2-2-2-----5--5-5--5--5-5--5--5--5--5-5-5---------|
Eb|-------------------------------------3--3-3--3--3-3--3--3--3--3-3-3---------|
        P.M     P.M                        P.M     P.M
     explain everything...              hope that you can hear me

   (x1)
eb|----------------------------------------------------------------------------|
Bb|----------------------------------------------------------------------------|
Gb|---7------------------------------2-----------------2-----------------------|
Db|---7------------------------------2-----------------2-(QUICK)---------------|
Ab|---5------------------------------0-------------0-0-0-----------------------|
Eb|----------------------------------------------------------------------------|
                                                   P.M
      so   You pretty little head goes         undisrupted

   (x1)
eb|----------------------------------------------------------------------------|
Bb|----------------------------------------------------------------------------|
Gb|--4--4-4--4--4-4--4--4--4--4-4-4--------------------------------------------|
Db|--4--4-4--4--4-4--4--4--4--4-4-4-----5--5-5--5--5--5-5----4-4-4-------------| 
Ab|--2--2-2--2--2-2--2--2--2--2-2-2-----5--5-5--5--5--5-5----4-4-4-------------|
Eb|-------------------------------------3--3-3--3--3--3-3----2-2-2-------------|
        P.M     P.M                        
     Drunk with the thought             right now

PRECHORUS TWO (1:35):

   (x1)
eb|--------------------------------------------------------------------------------|
Bb|--------------------------------------------------------------------------------|
Gb|--------------------------------------------------------------------------------|
Db|--2-----2---2--2--2--5-----5---5--5--5--9-----9---9--9--9--7-----7---7--7--7----|
Ab|--2-----2---2--2--2--5-----5---5--5--5--9-----9---9--9--9--7-----7---7--7--7----|
Eb|--0-0-0-0---0--0--0--3-3-3-3---3--3--3--7-7-7-7---7--7--7--5-5-5-5---5--5--5----|
       P.M.               P.M.               P.M.               P.M.
           I think      I think                  I think      we would know better 

   (x1)
eb|----------------------------------------------------------------------------|
Bb|----------------------------------------------------------------------------|
Gb|----------------------------------------------------------------------------|
Db|---2-2-2-2-2-2-2-2-2-2-2-2-2-2-2-2--5-5-5-5-5-5-5-5-5-5-5-5-5-5-5-5---------|
Ab|---2-2-2-2-2-2-2-2-2-2-2-2-2-2-2-2--5-5-5-5-5-5-5-5-5-5-5-5-5-5-5-5---------|
Eb|---0-0-0-0-0-0-0-0-0-0-0-0-0-0-0-0--3-3-3-3-3-3-3-3-3-3-3-3-3-3-3-3---------|
          I think we're old enough        I think we're old enough

   (x1)                                
eb|----------------------------------------------------------------------------|
Bb|----------------------------------------------------------------------------|
Gb|----------------------------------------------------------------------------|
Db|---9-9-9-9-9-9-9-9-9-9-9-9-9-9-9-9--7-7-7-7-7-7-7-7-7-7-7-7-----------------|
Ab|---9-9-9-9-9-9-9-9-9-9-9-9-9-9-9-9--7-7-7-7-7-7-7-7-7-7-7-7-----------------|
Eb|---7-7-7-7-7-7-7-7-7-7-7-7-7-7-7-7--5-5-5-5-5-5-5-5-5-5-5-5-----------------|
          I think we're old enough         we would know better

BRIDGE (1:54)

   (x3)                                  
eb|----------------------------------------------------------------------------|
Bb|----------------------------------------------------------------------------|
Gb|----------------------------------------------------------------------------|
Db|-------7-------------------9--------------5---------------------------------|
Ab|-------7--  RING  ---------9--  RING  ----5--  RING  -----------------------|
Eb|-------5-------------------7--------------3---------------------------------|
  1       I pretend              I pretend        I pretend      
  2       I pretend              I pretend
  3       I pretend  that I'm already someone

   (x1)
eb|----------------------------------------------------------------------------|
Bb|----------------------------------------------------------------------------|
Gb|----------------------------------------------------------------------------|
Db|-------7-------------------9--------------5-------------5-------------------|
Ab|-------7--  RING  ---------9--  RING  ----5--  RING  ---5-- QUICK-----------|
Eb|-------5-------------------7--------------3-------------3-------------------|
          I pretend                          I pretend     I'm already someone

FINAL CHORUS (2:13)

   (x2)
eb|----------------------------------------------------------------------------|
Bb|----------------------------------------------------------------------------|
Gb|----------------------------------------------------------------------------|
Db|--7-7---7-7-7---9--9-9--9-9-9-9---5-5---5-5-5---7---7-7---7-7-7-7-----------|
Ab|--7-7---7-7-7---9--9-9--9-9-9-9---5-5---5-5-5---7---7-7---7-7-7-7- S T O P -|
Eb|--5-5---5-5-5---7--7-7--7-7-7-7---3-3---3-3-3---5---5-5---5-5-5-5-----------|
  1    I pretend that I'm already someone                faded away
  2    I pretend that I'm already someone                faded away

eb|----------------------------------------------------------------------------|
Bb|----------------------------------------------------  FINISH  --------------|
Gb|-----------------------------------------------------  WITH  ---------------|
Db|----7---7-7-7---9--9-9--9-9-9-9---5-5-5-5-5-5-5-5---7  THIS 7---------------|
Ab|----7---7-7-7---9--9-9--9-9-9-9---5-5-5-5-5-5-5-5---7-------7---------------|
Eb|----5---5-5-5---7--7-7--7-7-7-7---3-3-3-3-3-3-3-3---5-5-5-5-5---------------|
                                    P.M-------------|    P.M--|
  1   I pretend that I'm already                     already someone
  2   I pretend that I'm already     all my problems     faded away





Comments


Popular Man Overboard tabs & chords
The Absolute Worst Bass Tabs
Replay Chords
Darkness, Everybody Tabs
Fantasy Girl Tabs
Fm Dial Style 2 Tabs
Love Your Friends, Die Laughing Tabs
Night Feelings Tabs
Septemberism Tabs
Again Ukulele
Different People Ukulele


Song lyrics



↑ Back to top | Tablatures and chords are parodies/interpretations of the original songs. You may use it for private study, scholarship, research or language learning purposes only
© 2014 AZChords.com Contact us | Privacy policy | DMCA | Add/correct tabs | Request tabs | Top 50 tabs