» » »

Man Overboard, 5 Girls Pizza Tabs (ver.1)

Artists:  A B C D E F G H I J K L M N O P Q R S T U V W X Y Z # 

5 Girls Pizza Tabs (ver.1)

Man Overboard Tabs
Rating:
5/5 (1 vote)
5 Girls Pizza lessons Tabs too difficult? Try these video lessons and learn fast
                I'm pretty sure this is what to play. Sounds like it.

Intro
e|----------------------------------------------|
B|----------------------------------------------|
G|3-3-3-3-3-3-3-3-3-3-3-3-3-3-3-3-3-3-3-3-3-3-3-|
D|X-X-X-X-X-X-X-X-X-X-X-X-X-X-X-X-X-X-X-X-X-X-X-|
A|1-1-1-1-1-1-1-1-1-1-1-1-1-1-1-1-1-1-1-1-1-1-1-|
D|----------------------------------------------|

Verse
e|----------------------------------------------------------------|
B|----------------------------------------------------------------|
G|3-3-3-3-3-3-3-3-3-3-3-3-3-3-3-3-3-3-3-3-3-3-3-3-3-3-3-3-3-3-3-3-|X2
D|X-X-X-X-X-X-X-X-X-X-X-X-X-X-X-X-X-X-X-X-X-X-X-X-X-X-X-X-X-X-X-X-|
A|1-1-1-1-1-1-1-1-1-1-1-1-1-1-1-1-1-1-1-1-1-1-1-1-1-1-1-1-1-1-1-1-|
D|----------------------------------------------------------------|

e|----------------------------------------------------------------|
B|----------------------------------------------------------------|
G|3-3-3-3-3-3-3-3-5-5-5-5-5-5-5-5-7-7-7-7-7-7-7-7-8-8-8-8-8-8-8-8-| X2
D|X-X-X-X-X-X-X-X-X-X-X-X-X-X-X-X-X-X-X-X-X-X-X-X-X-X-X-X-X-X-X-X-|
A|1-1-1-1-1-1-1-1-3-3-3-3-3-3-3-3-5-5-5-5-5-5-5-5-6-6-6-6-6-6-6-6-|
D|----------------------------------------------------------------|

Then
e|----------------------------------------------------------------|
B|----------------------------------------------------------------|
G|3-3-3-3-3-3-3-3-5-5-5-5-5-5-5-5-7-7-7-7-7-7-7-7-8-8-8-8-8-8-8-8-| X2
D|3-3-3-3-3-3-3-3-5-5-5-5-5-5-5-5-7-7-7-7-7-7-7-7-8-8-8-8-8-8-8-8-|
A|1-1-1-1-1-1-1-1-3-3-3-3-3-3-3-3-5-5-5-5-5-5-5-5-6-6-6-6-6-6-6-6-|
D|----------------------------------------------------------------|
      . . . . . . . . . . . . . . . . . . . . . . . . . . . . . .

Pre-Chorus
e|----------------------------------------------------------------|
B|----------------------------------------------------------------|
G|3-3--3-3-3--3---------------------------------------------------| 
D|3-3--3-3-3--3-3-3--3-3-3--3-1-1--1-1-1--1-1-1--1-1-1------------|
A|1-1--1-1-1--1-3-3--3-3-3--3-1-1--1-1-1--1-1-1--1-1-1------------|
D|--------------3-3--3-3-3--3-1-1--1-1-1--1-1-1--1-1-1------------|

e|----------------------------------------------------------------|
B|----------------------------------------------------------------|
G|3-3--3-3-3--3---------------------------------------------------| 
D|3-3--3-3-3--3-3-3--3-3-3--3-1-1-1-1-1-1-1-1-1-1-1-1-1-1-1-1-----|
A|1-1--1-1-1--1-3-3--3-3-3--3-1-1-1-1-1-1-1-1-1-1-1-1-1-1-1-1-----|
D|--------------3-3--3-3-3--3-1-1-1-1-1-1-1-1-1-1-1-1-1-1-1-1-----|

Pre-Chorus Guitar 2
e|----------------------------------------------------------------|
B|3---3-3---3-3---3-4-3-1-----------------------------------------|
G|--3-----3-----3-------------------------------------------------|X4 
D|----------------------------------------------------------------|
A|----------------------------------------------------------------|
D|----------------------------------------------------------------|

Chorus
e|----------------------------------------------------------------|
B|----------------------------------------------------------------|
G|3-3-5-5--7-7-8-8-8--3-3-5-5--7-7--------------------------------|X2
D|3-3-5-5--7-7-8-8-8--3-3-5-5--7-7--------------------------------|
A|1-1-3-3--5-5-6-6-6--1-1-3-3--5-5-6-5-3--------------------------|
D|----------------------------------------------------------------|

Bridge
e|----------------------------------------------|
B|----------------------------------------------|
G|----3~-----3-3--------------------------------| X4
D|--3------3-----1-1-0--------------------------|
A|1------1--------------------------------------|
D|----------------------------------------------|

Bridge Guitar 2 (On 4th time)
e|----------------------------------------------|
B|----------------------------------------------|
G|3-3-3-3-3-3-3-3-3-3-3-3-3-3-3-3-3-3-3-3-3-3-3-|
D|X-X-X-X-X-X-X-X-X-X-X-X-X-X-X-X-X-X-X-X-X-X-X-|
A|1-1-1-1-1-1-1-1-1-1-1-1-1-1-1-1-1-1-1-1-1-1-1-|
D|----------------------------------------------|

Chorus
e|----------------------------------------------------------------|
B|----------------------------------------------------------------|
G|3-3-5-5--7-7-8-8-8--3-3-5-5--7-7--------------------------------| 
D|3-3-5-5--7-7-8-8-8--3-3-5-5--7-7--------------------------------|
A|1-1-3-3--5-5-6-6-6--1-1-3-3--5-5-6-5-3--------------------------|
D|----------------------------------------------------------------|

e|----------------------------------------------------------------|
B|----------------------------------------------------------------|
G|3-3-5-5--7-7-8-8-8--3-3-5-5--7-7-8~-----------------------------| 
D|3-3-5-5--7-7-8-8-8--3-3-5-5--7-7-8~-----------------------------|
A|1-1-3-3--5-5-6-6-6--1-1-3-3--5-5-6~-----------------------------|
D|----------------------------------------------------------------|

Faster Chorus
e|----------------------------------------------------------------|
B|----------------------------------------------------------------|
G|3-3-5-5-5-5-5-5-5-7-7-8-8-8-8-8-8-8-8---------------------------| 
D|3-3-5-5-3-5-5-3-5-7-7-8-8-8-8-8-8-8-8---------------------------|
A|1-1-3-3-3-3-3-3-3-5-5-6-6-6-6-6-6-6-6---------------------------|
D|----------------------------------------------------------------|

e|----------------------------------------------------------------|
B|----------------------------------------------------------------|
G|3-3-5-5-5-5-5-5-5-7-7-------------------------------------------| 
D|3-3-5-5-3-5-5-3-5-7-7-------------------------------------------|
A|1-1-3-3-3-3-3-3-3-5-5-6-5-3-------------------------------------|
D|----------------------------------------------------------------|

e|----------------------------------------------------------------|
B|----------------------------------------------------------------|
G|3-3-5-5-5-5-5-5-5-7-7-8-8-8-8-8-8-8-8---------------------------| 
D|3-3-5-5-3-5-5-3-5-7-7-8-8-8-8-8-8-8-8---------------------------|
A|1-1-3-3-3-3-3-3-3-5-5-6-6-6-6-6-6-6-6---------------------------|
D|----------------------------------------------------------------|

e|----------------------------------------------------------------|
B|----------------------------------------------------------------|
G|3-3-5-5-5-5-5-5-5-7-7-7-8---------------------------------------| 
D|3-3-5-5-3-5-5-3-5-7-7-7-8---------------------------------------|
A|1-1-3-3-3-3-3-3-3-5-5-5-6---------------------------------------|
D|----------------------------------------------------------------|

Outro
e|----------------------------------------------------------------|
B|----------------------------------------------------------------|
G|3-3-5-5-5-5-5-5-5-7-7-8-8-8-8-8-8-8-8---------------------------| 
D|3-3-5-5-3-5-5-3-5-7-7-8-8-8-8-8-8-8-8---------------------------|
A|1-1-3-3-3-3-3-3-3-5-5-6-6-6-6-6-6-6-6---------------------------|
D|----------------------------------------------------------------|

e|----------------------------------------------------------------|
B|----------------------------------------------------------------|
G|3-3-5-5-5-5-5-5-5-7-7-------------------------------------------| 
D|3-3-5-5-3-5-5-3-5-7-7-------------------------------------------|
A|1-1-3-3-3-3-3-3-3-5-5-6-5-3-------------------------------------|
D|----------------------------------------------------------------|

e|----------------------------------------------------------------|
B|----------------------------------------------------------------|
G|3-3-5-5-5-5-5-5-5-7-7-8-8-8-8-8-8-8-8---------------------------| 
D|3-3-5-5-3-5-5-3-5-7-7-8-8-8-8-8-8-8-8---------------------------|
A|1-1-3-3-3-3-3-3-3-5-5-6-6-6-6-6-6-6-6---------------------------|
D|----------------------------------------------------------------|

e|----------------------------------------------------------------|
B|----------------------------------------------------------------|
G|3-3-5-5-5-5-5-5-5-7-7-8-----------------------------------------| 
D|3-3-5-5-3-5-5-3-5-7-7-8-----------------------------------------|
A|1-1-3-3-3-3-3-3-3-5-5-6-----------------------------------------|
D|----------------------------------------------------------------|

Outro Guitar 2
e|----------------------------------------------------------------|
B|3---3-3---3-3---3-4-3-1-----------------------------------------|
G|--3-----3-----3-------------------------------------------------|X4 
D|----------------------------------------------------------------|
A|----------------------------------------------------------------|
D|----------------------------------------------------------------|


Bass Ending

If you want to play with the bass at the end it goes like this
e|----------------------------------------------------------------|
B|----------------------------------------------------------------|
G|3--3-3--3-------------------------------------------------------|X2 
D|3--3-3--3-3--3-3--3-1--1-1--1-5-5-3-3---------------------------|
A|1--1-1--1-3--3-3--3-1--1-1--1-5-5-3-3---------------------------|
D|----------3--3-3--3-1--1-1--1-5-5-3-3---------------------------|

End On
e|----------------------------------------------------------------|
B|----------------------------------------------------------------|
G|3~--------------------------------------------------------------| 
D|3~--------------------------------------------------------------|
A|1~--------------------------------------------------------------|
D|----------------------------------------------------------------|
            

comments powered by Disqus
↑ Back to top | Man Overboard Tabs for 5 Girls Pizza. Lyrics for acoustic guitar and electric guitar. Tablatures and chords are parodies/interpretations of the original songs. You may use it for private study, scholarship, research or language learning purposes only