>
 >
Shades Of Hatred

Shades Of Hatred Guitar Tabs

Manntis - Shades Of Hatred chords, tabs, tablatures, lyrics

Guitar lessons | Add/correct | Request | Top 50 tabs Artists:  A B C D E F G H I J K L M N O P Q R S T U V W X Y Z 0-9

Shades Of Hatred Guitar Tabs – Manntis

CD, Sheet music, Poster

Do you like Shades Of Hatred? Share with your friends now
Bass TabsTabsTabs v2
Band: Manntis

they are more correct than mine, I will add them and give you credit.

Notations:  .  =  Palm Mute
            *  =  Pinch Harmonic/Artificial Harmonic
            h  =  Hammer On
            p  =  Pull Off
            b  =  Bend
            t  =  Trill
           : : =  Repeat Bar
            ~  =  Hold Note

Intro
[Guitar 1]                                       t
e|--------------------------------------------------||
B|--------------------------------------------------||
G|--------------------------------------------------||
D|-----8---4---7---3-------------8---5---7---3------||
A|-----6---3---5---1---1h3p1-----6---3---5---1---3*-||
D|-0-0---0---0---0---0-------0-0---0---0---0---0----||
   . .   .   .   .   .       . .   .   .   .   .
[Guitar 2] {w/ Wah & Delay} Slowly Open Wah and Bend Note
e|--------------------------------------------------||
B|--------------------------------------------------||
G|-555555555555555555555555555555555555555555555555-|| (Not exact count)
D|--------------------------------------------------||
A|--------------------------------------------------||
D|--------------------------------------------------||

[Guitar 1]
e|------------------------------------------------------------||
B|------------------------------------------------------------||
G|----------------------------3-3-3-3-3-3-3-3-5-5-5-5-7-7-7-7-||
D|-----8---4---7---3------------------------------------------||
A|-----6---3---5---1---1h3p1--1-1-1-1-1-1-1-1-3-3-3-3-5-5-5-5-||
D|-0-0---0---0---0---0----------------------------------------||
   . .   .   .   .   .
[Guitar 2] Turn off Effects |
e|------------------------------------------------------------||
B|------------------------------------------------------------||
G|------------------------------------------------------------|| (Some pinch harmonics here,
D|------------------------------------------------------------||  I don't have them figured
A|------------------------------------------------------------||  out yet and will add later)
D|------------------------------------------------------------||

[Guitar 1]                                       t
e|--------------------------------------------------||
B|--------------------------------------------------||
G|--------------------------------------------------||
D|-----8---4---7---3-------------8---5---7---3------||
A|-----6---3---5---1---1h3p1-----6---3---5---1---3*-||
D|-0-0---0---0---0---0-------0-0---0---0---0---0----||
   . .   .   .   .   .       . .   .   .   .   .
[Guitar 2] w/ Wah
e|--1313121210101010-1313131212121010101010-131312121010101088--||
B|--------------------------------------------------------------||
G|:------------------------------------------------------------:||
D|:------------------------------------------------------------:||
A|--------------------------------------------------------------||
D|--------------------------------------------------------------||
[Guitar 3]
e|--------------------------------------------------------------||
B|--------------------------------------------------------------|| (Guitar 3 only plays on
G|:-------------------------------------------------------12*--:||  the repeat. This is the
D|:------------------------------------------------------------:||  only time this guitar
A|--------------------------------------------------------------||  plays in the entire song)
D|--------------------------------------------------------------||

[Guitar 1]
e|------------------------------------------------------------||
B|------------------------------------------------------------||
G|----------------------------3-3-3-3-3-3-3-3-5-5-5-5-7-7-7-7-||
D|-----8---4---7---3------------------------------------------||
A|-----6---3---5---1---1h3p1--1-1-1-1-1-1-1-1-3-3-3-3-5-5-5-5-||
D|-0-0---0---0---0---0----------------------------------------||
   . .   .   .   .   .
[Guitar 2] w/ Wah
e|-1313121210101010-1313131212121010101010-131312121010101088-14b-13-12-13-12h13p12-10h12-10||
B|------------------------------------------------------------------------------------------||
G|------------------------------------------------------------------------------------------||
D|------------------------------------------------------------------------------------------||
A|------------------------------------------------------------------------------------------||
D|------------------------------------------------------------------------------------------||

Verse
[Both Guitars]
e|------------------------------------------------------------||
B|------------------------------------------------------------||
G|:----------------------------------------------------------:||
D|:-3-3-3-3--3--3-3-3-3-7-7-7-7------------------------------:||
A|--1-1-1-1--1--1-1-1-1-5-5-5-5-5-5-5-5--5--5-5-5-5--3-3-3-3--||
D|------------------------------5-5-5-5--5--5-5-5-5--3-3-3-3--||

[Guitar 1]
e|----------------------------------------------------------||
B|----------------------------------------------------------||
G|----------------------------------------------------------||
D|-3-3-3-3--3--3-3-3-3-7-7-7-7------------------------------||
A|-1-1-1-1--1--1-1-1-1-5-5-5-5-5-5-5-5--5--5-5-5-5--3-3-3-3-||
D|-----------------------------5-5-5-5--5--5-5-5-5--3-3-3-3-||
[Guitar 2]
e|-----8-----8-----8-----8---------10-----10-----11-10-8-10-8h10p8-6h8p6-||
B|-6-6---6-6---6-6---6-6---6-8-8-8----8-8----8-8-------------------------||
G|-----------------------------------------------------------------------||
D|-----------------------------------------------------------------------||
A|-----------------------------------------------------------------------||
D|-----------------------------------------------------------------------||

[Guitar 1]
e|----------------------------------------------------------||
B|----------------------------------------------------------||
G|----------------------------------------------------------||
D|-3-3-3-3--3--3-3-3-3-7-7-7-7------------------------------||
A|-1-1-1-1--1--1-1-1-1-5-5-5-5-5-5-5-5--5--5-5-5-5--3-3-3-3-||
D|-----------------------------5-5-5-5--5--5-5-5-5--3-3-3-3-||
[Guitar 2]
e|-----8-----8-----8-----8---------10-----10-----10b-||
B|-6-6---6-6---6-6---6-6---6-8-8-8----8-8----8-8-8-b-||
G|---------------------------------------------------||
D|---------------------------------------------------||
A|---------------------------------------------------||
D|---------------------------------------------------||

Bridge
[Both Guitars]
e|-----------------------------------||
B|-----------------------------------||
G|-----------------------------------||
D|-----------------------------------||
A|-0-0------0-0----0-0--0-0------0-0-||
D|-0-0------0-0----0-0--0-0------0-0-||
   . .      . .    . .  . .      . .

[Both Guitars]
e|--------------------------------------------------||
B|--------------------------------------------------||
G|--------------------------------------------------|| {One guitar starts
D|--------------------------------------------------||  the scrape a 1/2 second
A|-0-0------0-0----0-0--0-0------0-0----------------||  after the other one does}
D|-0-0------0-0----0-0--0-0------0-0--{Pick Scrape}-||
   . .      . .    . .  . .      . .

Pre-Chorus
[Guitar 1]
e|-----------------------------------------------------------------||
B|-----------------------------------------------------------------||
G|---------------------------------------------------------7-------||
D|-----8-8-7-7-----5-5-7-7-------------8-8-7-7-------5-7-8---8-7-8-||
A|-----------------------------8-8-----------------5---------------||
D|-0-0---------0-0---------0-0-----0-0---------0-0-----------------||
   . .         . .         . .     . .         . .
[Guitar 2]
e|-----------------------------------------------------------------||
B|-----------------------------------------------------------------||
G|-----------------------------------------------------------------||
D|-----------------------------------------------------------------||
A|-----------------------------------------------------------------||
D|-0-0~--------0-0~--------0-0~----0-0~--------0-0~----------------||
   . .         . .         . .     . .         . .

[Guitar 1]
e|--------------------------------------------------||
B|--------------------------------------------------||
G|--------------------------------------------------||
D|-----8-8-7-7-----5-5-7-7--------------------------||
A|-----------------------------8-8-0-0----0-0--12\1-||
D|-0-0---------0-0---------0-0-----0-0----0-0--12\1-||
   . .         . .         . .     .      .
[Guitar 2]
e|--------------------------------------------------||
B|--------------------------------------------------||
G|--------------------------------------------------||
D|--------------------------------------------------||
A|---------------------------------0-0----0-0--12\1-||
D|-0-0~--------0-0~--------0-0~----0-0----0-0--12\1-||
   . .         . .         . .     .      .

Chorus
[Both Guitars]                                                       x2
e|-------------------------------------------------------------------||
B|-------------------------------------------------------------------||
G|:---------------------------------------------------------7-------:||
D|:-----8-8-7-7-----5-5-7-7-------------8-8-7-7-------5-7-8---8-7-8-:||
A|--0-0-6-6-5-5-0-0-3-3-5-5-0-0-8-8-0-0-6-6-5-5-----5----------------||
D|--0-0---------0-0---------0-0-8-8-0-0---------0-0------------------||
    . .         . .         . .     . .         . .

[Guitar 1]
e|-----------------------------------------------------------------||
B|-----------------------------------------------------------------||
G|---------------------------------------------------------7-------||
D|-----8-8-7-7-----5-5-7-7-------------8-8-7-7-------5-7-8---8-7-8-||
A|-0-0-6-6-5-5-0-0-3-3-5-5-0-0-8-8-0-0-6-6-5-5-0-0-5---------------||
D|-0-0---------0-0---------0-0-8-8-0-0---------0-0-----------------||
   . .         . .         . .     . .         . .
[Guitar 2]
e|-----------------------------------------------------------------||
B|-----------------------------------------------------------------||
G|-----------------------------------------------------------------||
D|-----8-8-7-7-----5-5-7-7-------------8-8-7-7---------------------||
A|-0-0-6-6-5-5-0-0-3-3-5-5-0-0-8-8-0-0-6-6-5-5-0-0-----------------||
D|-0-0---------0-0---------0-0-8-8-0-0---------0-0-----------------||
   . .         . .         . .     . .         . .

Verse
[Both Guitars]
e|-------------------------------------------------------||
B|-------------------------------------------------------||
G|:-----------------------------------------------------:||
D|:-3-3-3-3--3--3--3--7-7-7-7---------------------------:||
A|--1-1-1-1--1--1--1--5-5-5-5-5-5-5-5--5--5--5--3-3-3-3--||
D|----------------------------5-5-5-5--5--5--5--3-3-3-3--||

[Guitar 1]
e|----------------------------------------------------------||
B|----------------------------------------------------------||
G|----------------------------------------------------------||
D|-3-3-3-3--3--3-3-3-3-7-7-7-7------------------------------||
A|-1-1-1-1--1--1-1-1-1-5-5-5-5-5-5-5-5--5--5-5-5-5--3-3-3-3-||
D|-----------------------------5-5-5-5--5--5-5-5-5--3-3-3-3-||
[Guitar 2]
e|-----8-----8-----8-----8---------10-----10-----11-10-8-10-8h10p8-6h8p6-||
B|-6-6---6-6---6-6---6-6---6-8-8-8----8-8----8-8-------------------------||
G|-----------------------------------------------------------------------||
D|-----------------------------------------------------------------------||
A|-----------------------------------------------------------------------||
D|-----------------------------------------------------------------------||

[Guitar 1]
e|----------------------------------------------------------||
B|----------------------------------------------------------||
G|----------------------------------------------------------||
D|-3-3-3-3--3--3-3-3-3-7-7-7-7------------------------------||
A|-1-1-1-1--1--1-1-1-1-5-5-5-5-5-5-5-5--5--5-5-5-5--3-3-3-3-||
D|-----------------------------5-5-5-5--5--5-5-5-5--3-3-3-3-||
[Guitar 2]
e|-----8-----8-----8-----8---------10-----10-----10b-||
B|-6-6---6-6---6-6---6-6---6-8-8-8----8-8----8-8-8-b-||
G|---------------------------------------------------||
D|---------------------------------------------------||
A|---------------------------------------------------||
D|---------------------------------------------------||

Chorus
[Both Guitars]                                                       x2
e|-------------------------------------------------------------------||
B|-------------------------------------------------------------------||
G|:---------------------------------------------------------7-------:||
D|:-----8-8-7-7-----5-5-7-7-------------8-8-7-7-------5-7-8---8-7-8-:||
A|--0-0-6-6-5-5-0-0-3-3-5-5-0-0-8-8-0-0-6-6-5-5-0-0-5----------------||
D|--0-0---------0-0---------0-0-8-8-0-0---------0-0------------------||
    . .         . .         . .     . .         . .

[Guitar 1]
e|-----------------------------------------------------||
B|-----------------------------------------------------||
G|---------------------------------------------7-------||
D|---------------------------------------5-7-8---8-7-8-||
A|-0-0~-----0-0~---0-0~---0-0~-----0-0-5---------------||
D|-0-0~-----0-0~---0-0~---0-0~-----0-0-----------------||
   . .      . .    . .    . .      . .
[Guitar 2]
e|-----------------------------------------------------||
B|-----------------------------------------------------||
G|-----------------------------------------------------||
D|-----------------------------------------------------||
A|-0-0~-----0-0~---0-0~---0-0~-----0-0~----------------||
D|-0-0~-----0-0~---0-0~---0-0~-----0-0~----------------||
   . .      . .    . .    . .      . .

End
[Both Guitars]
e|----------------------------------||
B|----------------------------------||
G|----------------------------------||
D|----------------------------------||
A|-0-0~-----0-0~---0-0~--0-0----0-0-||
D|-0-0~-----0-0~---0-0~--0-0----0-0-||
   . .      . .    . .   .      .





Comments


Popular Manntis tabs & chords
Approach Bass Tabs
New Breed Of Life Bass Tabs
Second Life Ahead Bass Tabs
Axe Of Redemtion Tabs
Breed New Life Tabs
Breed New Life Intro Tabs
Ends Where It Begins Tabs
New Breed Of Life Tabs
Resist And Overcome Intro Tabs
Wihered Soul Tabs


Song lyrics



↑ Back to top | Tablatures and chords are parodies/interpretations of the original songs. You may use it for private study, scholarship, research or language learning purposes only
© 2014 AZChords.com Contact us | Privacy policy | DMCA | Add/correct tabs | Request tabs | Top 50 tabs