» » »

Shades Of Hatred Tabs (ver.2)

Artists:  A B C D E F G H I J K L M N O P Q R S T U V W X Y Z # 

Shades Of Hatred Tabs (ver.2)

Manntis
Rating:
5/5 (1 vote)

Tabs too difficult? Try these video lessons and learn fast.
                -----------------------------------------------------------------------
                      Shades of Hatred - Manntis
-----------------------------------------------------------------------

Tuning: Drop D (D A D G B E)

Before you rip me apart, I know there are parts missing. I plan on updating the parts
I don’t have right now at a later time. So please don’t rate this tab based on the fact
things are missing, rate it on how good I tabbed this. If anyone can figure out the

INTRO

Guitar 1
e|----------------------------------------------------------------|
B|----------------------------------------------------------------|
G|---8----5----7----3-------------8----5----7----3----3*----------|
D|---8----5----7----3-------------8----5----7----3----------------|
A|00-6-00-3-00-5-00-1-00-3h5//-00-6-00-3-00-5-00-1-00-------------|
D|00---00---00---00---00-------00---00---00---00---00-------------|
  ..   ..   ..   ..   ..       ..   ..   ..   ..   ..

e|----------------------------------------------------------------|
B|----------------------------------------------------------------|
G|---8----5----7----3----------33333333-5555-7777-----------------|
D|---8----5----7----3----------xxxxxxxx-xxxx-xxxx-----------------|
A|00-6-00-3-00-5-00-1-00-3h5//-11111111-3333-5555-----------------|
D|00---00---00---00---00------------------------------------------|
  ..   ..   ..   ..   ..

I can’t seem to figure out guitar 2’s intro because it sounds like a slight effect is
I don’t have any effects so it is difficult for me to figure out.

VERSE

Guitar 1 (and Guitar 2 plays something else)
e|----------------------------------------------------------------|
B|----------------------------------------------------------------|
G|-3333-3-3333-7777-----------------------------------------------|
D|-3333-3-3333-7777-5555-5-5555-3333------------------------------|
A|-1111-1-1111-5555-5555-5-5555-3333------------------------------|
D|------------------5555-5-5555-3333------------------------------|

Guitar 2 (last two times)              (um.....)
e|---8--8--8--8--8-8----10--10---11-9-----------------------------|
B|-66-66-66-66-66-6-6-88--88--88----------------------------------|
G|----------------------------------------------------------------|
D|----------------------------------------------------------------|
A|----------------------------------------------------------------|
D|----------------------------------------------------------------|


BRIDGE
Both Guitars
e|----------------------------------------------------------------|
B|----------------------------------------------------------------|
G|----------------------------------------------------------------|
D|--------------------------------------------/pickslide/---------|
A|-00--00--00--00--00------00--00--00--00--00-/pickslide/---------|
D|-00--00--00--00--00-rest-00--00--00--00--00-/pickslide/---------|
   ..  ..  ..  ..  ..      ..  ..  ..  ..  ..

e|----------------------------------------------------------------|
B|----------------------------------------------------------------|
G|-----------------------------------------7----------------------|
D|---8877----5577----33----8877--------6-8---8-6-8----------------|
A|00------00------00----00------00-5-8----------------------------|
D|00------00------00----00------00--------------------------------|
  ..      ..      ..    ..      ..

e|----------------------------------------------------------------|
B|----------------------------------------------------------------|
G|----------------------------------------------------------------|
D|---8877----5577----33---0----0---12//---------------------------|
A|00------00------00----0-0--0-0---12//---------------------------|
D|00------00------00----0-0--0-0---12//---------------------------|
  ..      ..      ..    .    .

BREAKDOWN
Guitar 1  (Refer to song structure for further instructions)
e|-----------------------------------------------------------------|
B|-----------------------------------------------------------------|
G|--------------------------------------------7--------------------|
D|---88-77----55-77----33----88-77--------6-8---8-6-8--------------|
A|00-66-55-00-33-55-00-11-00-66-55-00-5-8--------------------------|
D|00-------00-------00----00-------00------------------------------|
  ..       ..       ..    ..       ..

Guitar 2 (comes in with this third time)
e|------------------------------------------------------------------|
B|---11-11-10-10---8-8-10-10---6-6----11-11-10-10-------------------|
G|---x--x--x--x----x-x-x--x----x-x----x--x--x--x-------------7------|
D|---8--8--7--7----5-5-7--7----3-3----8--8--7--7---------6-8---8-6-8|
A|00------------00----------00-----00-------------00-5-8------------|
D|00------------00----------00-----00-------------00----------------|
  ..            ..          ..     ..             ..

OUTRO
Both Guitars
e|-----------------------------------------------------------------|
B|-----------------------------------------------------------------|
G|---------------------------7-------------------------------------|
D|-----------------------6-8---8-6-8---------------0----0----------|
A|00--00--00--00—-00--5-8------------00--00--00--0-0--0-0----------|
D|00--00--00--00--00-----------------00--00--00--0-0--0-0----------|
  ..  ..  ..  ..  ..                 ..  ..  ..  .    .

Song Structure:
Intro x2
Guitar 1 Verse x4
Guitar 2 Verse x2 (comes in last two times)
Bridge x1
Guitar 1 Breakdown x4
Guitar 2 Breakdown x2 (comes in last two times)
Guitar 1 Verse x4
Guitar 2 Verse x2
Both Guitars Play Guitar 1 Breakdown x 2
Outro x1

| /  slide up
| \  slide down
| h  hammer-on
| p  pull-off
| ~  vibrato
| +  harmonic
| x  Mute note
            
Tabs too difficult? Try these video lessons and learn fast.




comments powered by Disqus
↑ Back to top | Tablatures and chords are parodies/interpretations of the original songs. You may use it for private study, scholarship, research or language learning purposes only