» » »

Blue Bass tabs (ver.1)

Artists:  A B C D E F G H I J K L M N O P Q R S T U V W X Y Z # 

Blue Bass tabs (ver.1)

Manic Drive
Rating:
2/5 (1 vote)

Hard to play? Try these video lessons and learn fast.
                
Tuning: standard


I'm pretty sure, that this tab is correct. Only in the end i am not 100% sure, but 
i think it fits though. 


Intro/Refrain

G|--------------------------------------|
D|--------------------------------------|
A|--------------------------------------|
E|--111-11-1-1-144-4999-99-966-6686-----|

G|--------------------------------------|
D|--------------------------------------|
A|--------------------------------------|
E|--111-11-1-1-144-499999999-88888888---|


Verse 1

G|------------------------------|
D|------------------------------|
A|-------4----1----3------------|
E|--1---------------------------| x2 


G|----------------------6----6---6-----|
D|-----3---3---3-----------------------|
A|-------------------4-----x---4---4---|
E|--1----x---1---1---------------------|


G|----3----3----3----------------------------------------------|
D|-------------------------------------------------------------|
A|-1----x----1----1----3-------2------1------------------------|
E|-------------------------------------------------4-----3-----|


Refrain
G|--------------------------------------|
D|--------------------------------------|
A|--------------------------------------|
E|--111-11-1-1-144-4999-99-966-6686-----|

G|--------------------------------------|
D|--------------------------------------|
A|--------------------------------------|
E|--111-11-1-1-144-499999999-88888888---|


G|--------------------------------------|
D|--------------------------------------|
A|--------------------------------------|
E|--111-11-1-1-144-4999-99-966-6686-----|

G|--------------------------------------|
D|--------------------------------------|
A|--------------------------------------|
E|--111-11-1-1-144----------------------|


Verse 2

G|------------------------------|
D|------------------------------|
A|-------4----1----3------------|
E|--1---------------------------| x2 


G|----------------------6----6---6-----|
D|-----3---3---3-----------------------|
A|-------------------4-----x---4---4---|
E|--1----x---1---1---------------------|


G|----3----3----3----------------------------------------------|
D|-------------------------------------------------------------|
A|-1----x----1----1----3-------2------1------------------------|
E|-------------------------------------------------4-----3-----|


Refrain
G|--------------------------------------|
D|--------------------------------------|
A|--------------------------------------|
E|--111-11-1-1-144-4999-99-966-6686-----|

G|--------------------------------------|
D|--------------------------------------|
A|--------------------------------------|
E|--111-11-1-1-144-499999999-88888888---|   x2


Bridge
G|------------------------|
D|------------------------|
A|------------------------|
E|--1-1-3-4---------------|   x2

G|--------------------------------|
D|--------------------------------|
A|----------------1----1-3--1-3---|
E|--1--1-3-4--3-4----4------------| x4


Refrain x3




| /  slide up
| \  slide down
| h  hammer-on
| p  pull-off
| ~  vibrato
| +  harmonic
| x  Mute note
===============================================================================
            
Hard to play? Try these video lessons and learn fast. | Correct




comments powered by Disqus
↑ Back to top | Tablatures and chords are parodies/interpretations of the original songs. You may use it for private study, scholarship, research or language learning purposes only