» » »

Manic Drive, Blue Bass tabs (ver.2)

Artists:  A B C D E F G H I J K L M N O P Q R S T U V W X Y Z # 

Blue Bass tabs (ver.2)

Manic Drive Tabs
 Rating:
4.3/5 (6 votes)
Blue lessons Tabs too difficult? Try these video lessons and learn fast
1
                -----------------------------------------------------------------------------
			     Blue - Manic Drive
-----------------------------------------------------------------------------

Tuning: Standard


Intro
G|----------------------------------------------------------------|
D|----------------------------------------------------------------|
A|----------------------------------------------------------------|
E|--1-1-xx-1-1-x-1---1-1-3-4-4-4---9-9-xx-9-9-x-9--6-6---3-3-4-1--|

G|------------------------------------------------------------------|
D|------------------------------------------------------------------|
A|------------------------------------------------------------------|
E|--1-1-xx-1-1-x-1---1-1-3-4-4-4---9-9-9-9-9-9-9-9-8-8-8-8-8-8-8-8--|

Verse
G|------------------------------|
D|------------------------------| x2
A|----------4~------------------|
E|--1~--------------1~------4~--|

G|------------------------------------------------|
D|------------------------------------------------|
A|------------------4-4-xx-4-4-x-4----------------|
E|--1-1-xx-1-1-x-1----------------1-1-xx-1-1-x-1--|

G|----------------------------|
D|----------------------------|
A|----------------------------|
E|--4-4-xx-4-4-x-4-6~-----3~--|

Chorus
G|----------------------------------------------------------------|
D|----------------------------------------------------------------|
A|----------------------------------------------------------------|
E|--1-1-xx-1-1-x-1---1-1-3-4-4-4---9-9-xx-9-9-x-9--6-6---3-3-4-1--|

G|------------------------------------------------------------------|
D|------------------------------------------------------------------|
A|------------------------------------------------------------------|
E|--1-1-xx-1-1-x-1---1-1-3-4-4-4---9-9-9-9-9-9-9-9-8-8-8-8-8-8-8-8--|

G|----------------------------------------------------------------|
D|----------------------------------------------------------------|
A|----------------------------------------------------------------|
E|--1-1-xx-1-1-x-1---1-1-3-4-4-4---9-9-xx-9-9-x-9--6-6---3-3-4-1--|

G|--------------------------------|
D|--------------------------------|
A|--------------------------------|
E|--1-1-xx-1-1-x-1---1-1-3-4-4-4--|

Verse
G|------------------------------|
D|------------------------------| x2
A|----------4~------------------|
E|--1~--------------1~------4~--|

G|------------------------------------------------|
D|------------------------------------------------|
A|------------------4-4-xx-4-4-x-4----------------|
E|--1-1-xx-1-1-x-1----------------1-1-xx-1-1-x-1--|

G|----------------------------|
D|----------------------------|
A|----------------------------|
E|--4-4-xx-4-4-x-4-6~-----3~--|

Chorus
G|----------------------------------------------------------------|
D|----------------------------------------------------------------|
A|----------------------------------------------------------------|
E|--1-1-xx-1-1-x-1---1-1-3-4-4-4---9-9-xx-9-9-x-9--6-6---3-3-4-1--|

G|------------------------------------------------------------------|
D|------------------------------------------------------------------|
A|------------------------------------------------------------------|
E|--1-1-xx-1-1-x-1---1-1-3-4-4-4---9-9-9-9-9-9-9-9-8-8-8-8-8-8-8-8--|

G|----------------------------------------------------------------|
D|----------------------------------------------------------------|
A|----------------------------------------------------------------|
E|--1-1-xx-1-1-x-1---1-1-3-4-4-4---9-9-xx-9-9-x-9--6-6---3-3-4-1--|

G|------------------------------------------------------------------|
D|------------------------------------------------------------------|
A|------------------------------------------------------------------|
E|--1-1-xx-1-1-x-1---1-1-3-4-4-4---9-9-9-9-9-9-9-9-8-8-8-8-8-8-8-8--|

Bridge
G|------------|
D|------------| x2
A|------------|
E|--1-1--3-4--|

G|----------------------------------------------------------------------|
D|----------------------------------------------------------------------|
A|----------------------------------------------------------------------|    
E|--1-1--3-4-3--4-6-4--6-12-10--12-13--1--3-4-3--4-6-4--6-12-10--12-13--| 

|-----------------------------------------------------------------|
|-----------------------------------------------------------------|
|-----------------------------------------------------------------|
|--1--3-4-3--4-6-4--6-12-10--12-13--1--3-4-3--4-6-4--6-12-10--12--| 

Chorus
G|----------------------------------------------------------------|
D|----------------------------------------------------------------|
A|----------------------------------------------------------------|
E|--1-1-xx-1-1-x-1---1-1-3-4-4-4---9-9-xx-9-9-x-9--6-6---3-3-4-1--|

G|------------------------------------------------------------------|
D|------------------------------------------------------------------|
A|------------------------------------------------------------------|
E|--1-1-xx-1-1-x-1---1-1-3-4-4-4---9-9-9-9-9-9-9-9-8-8-8-8-8-8-8-8--|

G|----------------------------------------------------------------|
D|----------------------------------------------------------------|
A|----------------------------------------------------------------|
E|--1-1-xx-1-1-x-1---1-1-3-4-4-4---9-9-xx-9-9-x-9--6-6---3-3-4-1--|

G|------------------------------------------------------------------|
D|------------------------------------------------------------------|
A|------------------------------------------------------------------|
E|--1-1-xx-1-1-x-1---1-1-3-4-4-4---9-9-9-9-9-9-9-9-8-8-8-8-8-8-8-8--|

G|----------------------------------------------------------------|
D|----------------------------------------------------------------|
A|----------------------------------------------------------------|
E|--1-1-xx-1-1-x-1---1-1-3-4-4-4---9-9-xx-9-9-x-9--6-6---3-3-4-1--|

G|-------------------------------------------------------------------|
D|-------------------------------------------------------------------|
A|-------------------------------------------------------------------|
E|--1-1-xx-1-1-x-1---1-1-3-4-4-4---9-9-9-9-9-9-9-9-8-8-8-8-8-8-8-1~--|

| /  slide up
| \  slide down
| h  hammer-on
| p  pull-off
| ~  let note ring
| +  harmonic
| x  Mute note
=============================================================================
            
Submit corrections

comments powered by Disqus
↑ Back to top | Manic Drive Bass for Blue. Lyrics for acoustic guitar and electric guitar. 1 Tablatures and chords are parodies/interpretations of the original songs. You may use it for private study, scholarship, research or language learning purposes only