>
 >
Blinded By The Light

Blinded By The Light Guitar Tabs

Manfred Mann - Blinded By The Light chords, tabs, tablatures, lyrics

Guitar lessons | Add/correct | Request | Top 50 tabs Artists:  A B C D E F G H I J K L M N O P Q R S T U V W X Y Z 0-9

Blinded By The Light Guitar Tabs – Manfred Mann

CD, Sheet music, Poster

Do you like Blinded By The Light? Share with your friends now
Bass TabsChordsChords v2TabsUkulele
wah wah pedal required

e|--15b17--15--------------15----------------------------------------------|
B|-------------18--17--18-----15-------------------------------------------|
G|-------------------------------------------------------------------------|
D|-------------------------------------------------------------------------|
A|-------------------------------------------------------------------------|
E|-------------------------------------------------------------------------|

e|-------------------------------------------------------15----------------|
B|-13h15p13-15p13-15p13-15p13-15p13-15p13-15p13-15p13-------15-14----------|
G|-------------------------------------------------------------------------|
D|-------------------------------------------------------------------------|
A|-------------------------------------------------------------------------|
E|-------------------------------------------------------------------------|

e|-------------------------------------------------------------------------|
B|-13p12p10-12-------------------------------------------------------------|
G|-------------12--10\9-10-12-10p9-----------------------------------------|
D|---------------------------------10--------------------------------------|
A|-------------------------------------------------------------------------|
E|-------------------------------------------------------------------------|

e|------13-15-13-12-13-15p13p12--------------------------------------------|
B|--15--------------------------13-15p13-----------------------------------|
G|-------------------------------------------------------------------------|
D|-------------------------------------------------------------------------|
A|-------------------------------------------------------------------------|
E|-------------------------------------------------------------------------|

e|-------------------------------------------------------------------------|
B|-15p13-15p13-15p13-15p13-15p13-15p13-15p13-15p13-15p13-15p13-15p13-15p13-|
G|-------------------------------------------------------------------------|
D|-------------------------------------------------------------------------|
A|-------------------------------------------------------------------------|
E|-------------------------------------------------------------------------|

e|-------------------------------------------------------------------------|
B|-13\10-10/13-------------------------------------------------8-8b10------|
G|-------------14-14\12-10-12p10-10\9-10p9------7-----10-7-10--------------|
D|-----------------------------------------10------------------------------|
A|-------------------------------------------------------------------------|
E|-------------------------------------------------------------------------|

e|---------------------------8---------------------------------------------|
B|--6-5---8-6-5-6p5---8-6-5----6----8-6-5-8-6----3-1-3p--------------------|
G|------7-----------7------------7------------7---------2-1-0--------------|
D|-------------------------------------------------------------------------|
A|-------------------------------------------------------------------------|
E|-------------------------------------------------------------------------|

e|---------------------------888-8-8h10-10-10-8-10-repeat this note quickly|
B|-------------------------------------------------------------------------|
G|-------------------------------------------------------------------------|
D|-3-5-3-------3-5b6-3-5-3-------------------------------------------------|
A|-------5-3-5-------------------------------------------------------------|
E|-------------------------------------------------------------------------|

e|--15b17-13-15-13-15b17-13-15-13-----15b17-13-15-13-12-13-13p12p10--------|
B|--------------------------------15\-------------------------------13--10-|
G|-------------------------------------------------------------------------|
D|-------------------------------------------------------------------------|
A|-------------------------------------------------------------------------|
E|-------------------------------------------------------------------------|

e|-------------------------------------------------------------------------|
B|-3p2p1 keep trilling on this string up the neck--------------------------|
G|-------------------------------------------------------------------------|
D|-------------------------------------------------------------------------|
A|-------------------------------------------------------------------------|
E|-------------------------------------------------------------------------|

e|-15-13-12-13-------------------------------------------------------------|
B|------------13b15--------------------------------------------------------|
G|------------------14p13p12-14p13p12-14-12-10-12-10-------10-12-12b14-10--|
D|---------------------------------------------------12-10-----------------|
A|-------------------------------------------------------------------------|
E|-------------------------------------------------------------------------|

e|-------------------------------------------------------------------------|
B|-13----------13------13------13------13-------13--15--13--15-------------|
G|----14--12b14---12b14---12b14---12b14---12b14----------------------------|
D|-------------------------------------------------------------------------|
A|-------------------------------------------------------------------------|
E|-------------------------------------------------------------------------|


e|--------------------------------10-10-10-10-10-10-10-10-10---------------|
B|--------------------------------10-10-10-10-10-10-10-10-10---------------|
G|-10h12-12b14-10----10h12-12b14-------------------------------------------|
D|----------------12-------------------------------------------------------|
A|-------------------------------------------------------------------------|
E|-------------------------------------------------------------------------|

e|-------------------------------------------------------------------------|
B|-3p2p1 keep trilling on this string up the neck--------------------------|
G|-------------------------------------------------------------------------|
D|-------------------------------------------------------------------------|
A|-------------------------------------------------------------------------|
E|-------------------------------------------------------------------------|

e|--21b23-21b23-21b23-21b23-21b23-21b23-21b23-21b23------------------------|
B|---------------------------------------------------15-17-18-17-15--------|
G|------------------------------------------------------------------14-----|
D|-------------------------------------------------------------------------|
A|-------------------------------------------------------------------------|
E|-------------------------------------------------------------------------|





Comments


Popular Manfred Mann tabs & chords
Semi-detached Suburban Mr James Bass Tabs
If You Gotta Go, Go Now Chords
Mighty Quinn 2 Chords
One Way Glass Chords
Pretty Flamingo 1 Chords
Blinded By The Light Intro Tabs
My Name Is Jack Tabs
Questions Tabs
Since I Dont Have You Tabs
Ha Ha Said The Clown Ukulele


Song lyrics



↑ Back to top | Tablatures and chords are parodies/interpretations of the original songs. You may use it for private study, scholarship, research or language learning purposes only
© 2014 AZChords.com Contact us | Privacy policy | DMCA | Add/correct tabs | Request tabs | Top 50 tabs