» » »

Blinded By The Light Tabs (ver.1)

Artists:  A B C D E F G H I J K L M N O P Q R S T U V W X Y Z # 

Blinded By The Light Tabs (ver.1)

Manfred Mann
Rating:
5/5 (2 votes)

Hard to play? Try these video lessons and learn fast.
                (Intro)
-------------------------------------------------------------------------------
                             BLINDED BY THE LIGHT - Manfred Mann
-------------------------------------------------------------------------------


Tuning: Standard

*All notes are eight notes

e|--8--8--8--8--8--8--8--8------------6--6--6--6--6--6--6--6----------------|
B|--10-10-10-10-10-10-10-10-----------8--8--8--8--8--8--8--8----------------|
G|--9--9--9--9--9--9--9--9------------7--7--7--7--7--7--7--7----------------|
D|--------------------------------------------------------------------------|
A|--------------------------------------------------------------------------|
E|--------------------------------------------------------------------------|
                                     *Repeat next 4 measures throughout intro
e|--8--8--8--8--8--8--8--8---------||-10-10-10-10-10-10-10-10---------------|
B|--10-10-11-11-10-10-8--8---------||-11-11-11-11-11-11-11-11---------------|
G|--10-10-10-10-10-10-10-10--------||-10-10-10-10-10-10-10-10---------------|
D|---------------------------------||---------------------------------------|
A|---------------------------------||---------------------------------------|
E|---------------------------------||---------------------------------------|

e|--8--8--10-10-12-12-10-10------------6--6--6--6--6--6--6--6---------------|
B|--10-10-10-10-10-10-10-10------------8--8--8--8--8--8--8--8---------------|
G|--9--9--9--9--9--9--9--9-------------7--7--7--7--7--7--7--7---------------|
D|--------------------------------------------------------------------------|
A|--------------------------------------------------------------------------|
E|--------------------------------------------------------------------------|

e|--8--8--8--8--8--8--8--8---||---------------------------------------------|
B|--10-10-11-11-10-10-8--8---||---------------------------------------------|
G|--10-10-10-10-10-10-10-10--||---------------------------------------------|
D|---------------------------||---------------------------------------------|
A|---------------------------||---------------------------------------------|
E|---------------------------||---------------------------------------------|


************************************

| /   slide up
| \   slide down
| h   hammer-on
| p   pull-off
| ~   vibrato
| +   harmonic
| x   Mute note
| b   Bend
| pb  Pre-bend
| br  Bend release
| pbr Pre-bend release
| brb Bend release bend

************************************
            
Hard to play? Try these video lessons and learn fast. | Correct




comments powered by Disqus
↑ Back to top | Tablatures and chords are parodies/interpretations of the original songs. You may use it for private study, scholarship, research or language learning purposes only