>
 >
Someday We'll Know

Someday We'll Know Guitar Tabs

Mandy Moore - Someday We'll Know chords, tabs, tablatures, lyrics

Guitar lessons | Add/correct | Request | Top 50 tabs Artists:  A B C D E F G H I J K L M N O P Q R S T U V W X Y Z 0-9

Someday We'll Know Guitar Tabs – Mandy Moore

CD, Sheet music, Poster

Do you like Someday We'll Know? Share with your friends now
ChordsChords v2Chords v3Tabs
Hi Ms. Rosellini Ann Raphaelle Valdez..


Intro: G#m  C#m  G#m - A

e|-----------------------------------|
B|------------5----------------------|
D|------------------------6---------| 
A|------6------------------7---------|2x
E|----6-------4------------7---------|
G|--4----------------------5---------|

Ninety miles outside Chicago 
Can't stop driving, I don't now why
So many questions, I need an answer
F#m                         B
Two years and later, Your still on my mind

Verse:

e|--------------------------------|
B|--------------------------------|
D|------------6--6-----6---------| 
A|-----6--6----6--6-----7---------|
E|-----6--6----4--4-----7---------|
G|-----4--4-------------5---------|


G#m       C#m           A
Whatever happened to Amelia Earhart
G#m          C#m    A
Who holds the stars up in the sky
G#m     C#m        A
Is true love just once in a lifetime
F#m                         B
Did the captain of Titanic cry
  A (hold)
 Ohhh.....


1st chorus:

G#m          C#m           
Someday we'll know
    A
If love can move a mountain
G#m       C#m       A 
Someday we'll know, Why the sky is blue
G#m       C#m
Someday we'll know
A                       B
Why I wasn't meant for you


Verse 2: (do verse chords)

e|--------------------------------|
B|--------------------------------|
D|------------6--6-----6---------| 
A|-----6--6----6--6-----7---------|
E|-----6--6----4--4-----7---------|
G|-----4--4-------------5---------|

Does anybody know the way to Atlantis
Or what the wind says when she cries
I'm speeding by the place that I met for you
F#m                     B       A
For the ninety-seventh time... Tonight

(Repeat 1st chorus)
      C#m  
Yeah, yeah, yeah, yeah

2nd chorus:
G#m       C#m
Someday we'll know
    A
Why Samson loved Delilah 
G#m       C#m     A
One day I'll go, Dancing on the moon
G#m       C#m
Someday you'll know
A                      B
That I was the one for you...

Interlude: B - C#m - A

Last verse: (do verse chords)

I bought a ticket to the end of the rainbow
Watch the stars crash in the sea
If I could ask God just one question
Why aren't you here with me tonight 

(Repeat 1st Chorus up to 2nd chorus)





Comments


Popular Mandy Moore tabs & chords
Cry Bass Tabs
Crush Chords
Cry 3 Chords
I See The Light Chords
Someday Well Now Chords
Umbrella 1 Chords
I Wanna Be With You Tabs
Fern Dell Ukulele
Its Gonna Be Love Ukulele
Latest Mistake Ukulele


Song lyrics



↑ Back to top | Tablatures and chords are parodies/interpretations of the original songs. You may use it for private study, scholarship, research or language learning purposes only
© 2014 AZChords.com Contact us | Privacy policy | DMCA | Add/correct tabs | Request tabs | Top 50 tabs