>
 >
I See The Light

I See The Light Guitar Tabs

Mandy Moore - I See The Light chords, tabs, tablatures, lyrics

Guitar lessons | Add/correct | Request | Top 50 tabs Artists:  A B C D E F G H I J K L M N O P Q R S T U V W X Y Z 0-9

I See The Light Guitar Tabs – Mandy Moore

CD, Sheet music, Poster

Do you like I See The Light? Share with your friends now
ChordsChords v2Chords v3Chords v4Chords v5TabsTabs v2Ukulele
Song Title		:	I See the Light
Performed By		:	Mandy Moore and Zachary Levi
OST			:	Tangled
Tuning			:	F-A#-D#-G#-C-f [Standard + Capo on 1st fret]
Mobile No.		:	+639163981421


Note(s)			:	All chords and notes are relative to capo


Intro			:
     C				C
 f|-------------0----------|-------------3----0---|
 C|--------1---------1-----|--------1-------------|
G#|------0----0----0---0---|------0----0----0-----|
D#|------------------------|----------------------|
A#|--3---------------------|--3-------------------|
 F|------------------------|----------------------|

     C				C
 f|-------------0----------|-------------3--------|
 C|--------1---------1-----|--------1----------1--|
G#|------0----0----0---0---|------0----0----0-----|
D#|------------------------|----------------------|
A#|--3---------------------|--3-------------------|
 F|------------------------|----------------------|


Verse 1 [Mandy]		:
     C				C
 f|------------------------|-------------0-----------|
 C|-------------1----------|--------1----------1-----|
G#|--------0---------0-----|------0--------0------0--|
D#|-----2----2----2----2---|----------2--------------|
A#|--3---------------------|--3----------------------|
 F|------------------------|-------------------------|
     All...                  Watching...

     C				C
 f|------------------------|-------------0-----------|
 C|-------------1----------|--------1----------1-----|
G#|--------0---------0-----|------0--------0---------|
D#|-----2----2----2----2---|----------2--------------|
A#|--3---------------------|--3----------------------|
 F|------------------------|-------------------------|
     All...                  Outside...

	 F 
 f|--------------------1--------|
 C|------------------------1----|
G#|------------2---------2---2--|
D#|----------------3------------|
A#|--------3--------------------|
 F|--0-1------------------------|
      All...    

     Em		  Am			C	  Dm/F#      G
 f|--------------------------------------------------1-------------|
 C|-----------0-------------0-------1-----1--------3----------1-0--|
G#|-------------0--------------0--------0--------2----------0------|
D#|--------------------2--------------2-------------------0--------|
A#|-----2-----------0---------------3------------------------------|
 F|--0---------------------------------------1---------3-----------|
    Never...       knowing...      just...  blind...  been...


Verse	2 [Mandy]	: 
     C				C
 f|------------------------|-------------0-----------|
 C|-------------1----------|--------1----------1-----|
G#|--------0---------0-----|------0--------0------0--|
D#|-----2----2----2----2---|----------2--------------|
A#|--3---------------------|--3----------------------|
 F|------------------------|-------------------------|
     Now...                  Blinking...

     C				C
 f|------------------------|-------------0-----------|
 C|-------------1----------|--------1----------1-----|
G#|--------0---------0-----|------0--------0---------|
D#|-----2----2----2----2---|----------2--------------|
A#|--3---------------------|--3----------------------|
 F|------------------------|-------------------------|
     Now...                  Suddenly...

	 F 
 f|--------------------1--------|
 C|------------------------1----|
G#|------------2---------2---2--|
D#|----------------3------------|
A#|--------3--------------------|
 F|--0-1------------------------|
      Standing...    

     Em		        Am	        Dm/F#            G
 f|------------0--------------------------------1--------------3------|
 C|------------------0----------1--------------------------0-------0--|
G#|-------0--------0---0----------2----------------2---------0---0----|
D#|---------2---------------2--------------0-------------0------------|
A#|----2------------------0-------------------------------------------|
 F|--0----------------------------------1--------------3--------------|
    all...               where...      meant...        be...

Chorus [Mandy]		:
     F                   C
 f|-------------1--------------------0--------|
 C|------------------1-------------------1----|
G#|--------2-------2---2-----0---------0---0--|
D#|----------3-------------2---2--------------|
A#|----3-----------------3--------------------|
 F|--1----------------------------------------|
    last...             light...

     G        G/B          C         
 f|--------------------------------------0---------|
 C|------------------0-----------1------------1----|
G#|--------0-----------0-----------0--------0---0--|
D#|----------0---0-----------2---------------------|
A#|----2-------2-----------3-----------------------|
 F|--3---------------------------------------------|
    like...   fog...      lifted...

     F                   C
 f|-------------1--------------------0--------|
 C|------------------1-------------------1----|
G#|--------2-------2---2-----0---------0---0--|
D#|----------3-------------2---2--------------|
A#|----3-----------------3--------------------|
 F|--1----------------------------------------|
    last...             light...

     E        E7      Am
 f|-----------------0------------0---------|
 C|---------------0--------1---------1-----|
G#|--------1----1------------2-----2---2---|
D#|------2----0---------2------------------|
A#|----2--------------0--------------------|
 F|--0-------------------------------------|
    Like...   sky...  new...

     F                   C
 f|-------------1--------------------0--------|
 C|------------------1-------------------1----|
G#|--------2-------2---2-----0---------0---0--|
D#|----------3-------------2---2--------------|
A#|----3-----------------3--------------------|
 F|--1----------------------------------------|
    warm...             bright...

     E           E7         Am             
 f|--------------------0---------------0---------0---------|
 C|------------------0-----------1---------1-----1---------|
G#|--------1-------1---------------2-----2---2---2--pause--|
D#|------2-------0------------2------------------2---------|
A#|----2--------------------0--------------------0---------|
 F|--0-----------------------------------------------------|
    world...   somehow...  shifted...          (Strum Am chord softly)       

     C				C
 f|------------------------|-------------0-----------|
 C|-------------1----------|--------1----------1-----|
G#|--------0---------0-----|------0--------0------0--|
D#|-----2----2----2----2---|----------2--------------|
A#|--3---------------------|--3----------------------|
 F|------------------------|-------------------------|
    All...                  everything...



     F          G               C
 f|-------------------------------------------0-----------|
 C|----------------------0------------1-------------1-----|
G#|-------2----------------0--------0-----------0------0--|
D#|---------3---------------------------2-----------------|
A#|----3----------2-------------3-------------------------|
 F|--1----------3-----------------------------------------|
    Now...      I...           you...


Instrumental		:	Use intro and verse plucking pattern...

				C-C-C-C
				F-Em–Am-C-Dm/F-G  
				G#


			:	For the remaining parts of the song,
				Just mess out with the plucking patterns a bit.
				Chords are already given


				D#
Verse	3 [Zachary]	:	All those days
				D#
				Chasing down a daydream
				D#
				All those years
				D#
				Living in a blur
				G#
				All that time
				Gm		 Cm
				Never truly seeing…
				  D#        G#       A#
				…things the way they were
				
				D#
Verse	4 [Zachary]	:	Now she’s here
				D#
				Shining in the starlight
				D#
				Now she’s here
				D#
				Suddenly I know
				G#
				If she’s here
					Gm
				It’s crystal clear
				     Cm		    A#
				I’m were I'm meant to go


				        G#	       D#
Chorus [Duet]		:	And at last I see the light
					   A#		    D#         
				And it’s like the fog has lifted
					G#		 D#
				And at last I see the light
					    G7		  Cm
				And it’s like the sky is new
					    G#		    D#
				And it’s warm and real and bright
					   G7		    Cm
				And the world has somehow shifted [pause]
				D#
				All at once
				D#
				Everything is different
				G#	 A#     D#
				Now that I see you

				
				G#	 A#     D#
Coda [Duet]		:	Now that I see you





Comments


Popular Mandy Moore tabs & chords
Anticipation Chords
I Wanna Be With You Chords
Looking Forward To Looking Back 1 Chords
Umbrella Chords
Yo-yo Chords
In My Pocket Tabs
When I Talk To You Tabs
Candy Ukulele
Few Days Down Ukulele
Umbrella Ukulele


Song lyrics



↑ Back to top | Tablatures and chords are parodies/interpretations of the original songs. You may use it for private study, scholarship, research or language learning purposes only
© 2014 AZChords.com Contact us | Privacy policy | DMCA | Add/correct tabs | Request tabs | Top 50 tabs