>
 >
When Will My Life Begin

When Will My Life Begin Guitar Tabs

Mandy Moore - When Will My Life Begin chords, tabs, tablatures, lyrics

Guitar lessons | Add/correct | Request | Top 50 tabs Artists:  A B C D E F G H I J K L M N O P Q R S T U V W X Y Z 0-9

When Will My Life Begin Guitar Tabs – Mandy Moore

CD, Sheet music, Poster

Do you like When Will My Life Begin? Share with your friends now
ChordsChords v2Chords v3Chords v4TabsUkulele
Intro:
|---0--------------0--------------|
|---0--------------0--------------|
|---8--------------9--------------|
|---9--------------9--------------|
|---9--------------7--------------|
|---7--------------0--------------|  X2

Verse:

Seven A.M...
|---0--------------0--------------|
|---0--------------0--------------|
|---8--------------9--------------|
|---9--------------9--------------|
|---9--------------7--------------|
|---7--------------0--------------|  X2

Polish and wax...
|---0--------------3--------------|
|---1--------------3--------------|
|---0--------------0--------------|
|---2--------------0--------------|
|---3--------------2--------------|
|---0--------------3--------------|

Sleep again and by then it's like seven fifteen
  |---0------------0--------------0--------0----|
  |---0------------0--------------0--------0----|
  |---4------------1--------------3--------8----|
  |---4------------2--------------4--------9----|
  |---2------------2--------------4--------9----|
  |---0------------0--------------2--------7----|

Chorus:

And so I'll read a book or maybe two or three
       |----0------0-------------0------0----|
       |----0------2-------------0------0----|
       |----1------2-------------3------1----|
       |----2------2-------------4------2----|
       |----2------0-------------4------2----|
       |----0------0-------------2------0----|

I'll add a few new paintings to my gallery
       |---0-------0---------------0----0----|
       |---5-------0---------------0----0----|
       |---6-------3---------------6----8----|
       |---6-------4---------------7----9----|
       |---4-------4---------------7----9----|
       |---0-------2---------------5----7----|

I'll play guitar and knit and cook and basically
       |---0-------0-------------------0--4---0--|
       |---5-------0-------------------0--6---5--|
       |---6-------3-------------------6--4---6--|
       |---6-------4-------------------7--5---6--|
       |---4-------4-------------------7--7---4--|
       |---0-------2-------------------5--4---0--|

Just wonder when will my life begin
       |---0-------------0------0--|
       |---0-------------0------0--|
       |---3-------------8------1--|
       |---4-------------9------2--|
       |---4-------------9------2--|
       |---2-------------7------0--|

Verse: Same exact tabs

Chorus: Repeat up until...

Stuck in the same place I've always been
       |-----0---------------0--4---0--|
       |-----0---------------0--6---5--|
       |-----3---------------6--4---6--|
       |-----4---------------7--5---6--|
       |-----4---------------7--7---4--|
       |-----2---------------5--4---0--|

And I'll keep wondering and wondering and wondering and wondering
       |------0-------------2-------------4-------------4--------|
       |------0-------------2-------------4-------------5--------|
       |------3-------------2-------------4-------------4--------|
       |------4-------------4-------------6-------------6--------|
       |------4-------------2-------------4-------------4--------|
       |------2-----------4-4-----------6-6-----------4-4--------|

   When will my life begin
|--0------------0------0------|
|--0------------0------0------|
|--3------------4------1------|
|--4------------4------2------|
|--4------------2------2------|
|--2------------0------0------|





Comments


Popular Mandy Moore tabs & chords
Crush Chords
Extrodinary Chords
I See The Light 3 Chords
Umbrella 2 Chords
When I Talk To You Chords
When Will My Life Begin 3 Chords
Candy Tabs
Only Hope 1 Tabs
Only Hope Intro 2 Tabs
Only Hope Ukulele


Song lyrics



↑ Back to top | Tablatures and chords are parodies/interpretations of the original songs. You may use it for private study, scholarship, research or language learning purposes only
© 2014 AZChords.com Contact us | Privacy policy | DMCA | Add/correct tabs | Request tabs | Top 50 tabs