>
 >
New Boy

New Boy Guitar Tabs

Mando Diao - New Boy chords, tabs, tablatures, lyrics

Guitar lessons | Add/correct | Request | Top 50 tabs Artists:  A B C D E F G H I J K L M N O P Q R S T U V W X Y Z 0-9

New Boy Guitar Tabs – Mando Diao

CD, Sheet music, Poster

Do you like New Boy? Share with your friends now
ChordsChords v2Chords v3TabsUkulele
****************************
**Mando Diao - The New Boy**
****************************


|h hammer-on
|p pull-off

Guitar 1*Riff 1 (Play every verse like this except for 2 and 4, where you             
                 skip the ending G) 
e|-------------------------------------------------------------------0---------------------------|
B|-------1-----------1-----------1-----------0-----------0--------------1--------1-----------0---|
G|----------0-----------2-----------2-----------0-----------1--------------------2--2-----------0|
D|----2-----------2-----------3-----------------------2-----------2-----------3------------------|
A|-3-----------0-----------3--------------2--------3-----------0-----------3--------------2------|
E|-------------------------------------3-----------------------------------------------3---------|

e|-------0-----------0-----------0-----------0---------------------------------------------------|
B|-------0-----------1-----------0--------1--1-----------1-----------0-----------1-----------0---|
G|-------0-----------2-----------0--------2--2-----------2--------------0-----------0-----------0|
D|-------2--2--2--------2--------2--2--2--------0-----3-----3-----------------2------------------|
A|----2-----------------------2--------------------3--------------2--------3--------------2------|
E|-0-----------------------0-----------------------------------3-----------------------3---------|

Guitar 2*Riff 1
e|-------8-----------5-----------1-----------3-----------8-----------5-----------1-----------3---|
B|------8-8---------5-5---------1-1---------3-3---------8-8---------5-5---------1-1---------3-3--|
G|-----9---9-------5---5-------2---2-------4---4-------9---9-------5---5-------2---2-------4---4-|
D|---10-----10----7-----7-----3-----3-----5-----5----10-----10----7-----7-----3-----3-----5-----5|
A|-----------------------------------------------------------------------------------------------|
E|-8-----------5-----------1-----------3-----------8-----------5-----------1-----------3---------|

e|-------7-----------5-----------7-----------5-----------1-----------3-----------8---8---8---8---|
B|------8-8---------5-5---------8-8---------5-5---------1-1---------3-3---------8-8---8---8---8--|
G|-----7---7-------5---5-------7---7-------5---5-------2---2-------4---4-------9---9---9---9---9-|
D|----9-----9-----7-----7-----9-----9-----7-----7-----3-----3-----5-----5----10------------------|
A|-7-----------------------7---------------------------------------------------------------------|
E|-------------5-----------------------5-----------1-----------3-----------8---------------------|

Guitar 2*Riff 2
e|-------7-----------5-----------1-----------3-----------7-----------5-----------7-----------5---|
B|------8-8---------5-5---------1-1---------3-3---------8-8---------5-5---------8-8---------5-5--|
G|-----7---7-------5---5-------2---2-------4---4-------7---7-------5---5-------7---7-------5---5-|
D|----9-----9-----7-----7-----3-----3-----5-----5-----9-----9-----7-----7-----9-----9-----7-----7|
A|-7-----------------------------------------------7-----------------------7---------------------|
E|-------------5-----------1-----------3-----------------------5-----------------------5---------|

e|-------1-----------5-----------3-----------0---|
B|------1-1---------7-7---------3-3---------0-0--|
G|-----2---2-------7---7-------4---4-------1---1-|
D|----3-----3-----7-----7-----5-----5-----2-----2|
A|-------------5---------------------------------|
E|-1-----------------------3-----------0---------|

Guitar 2*Riff 3
e|-------10-8--------7-5---------3-1---------3h5p3---------8h10p8---------5-----------3-1---------3---|
B|------8----8------5---5-------1---1-------3-----3-------8------8-------5-5-5-------1---1-------3-3--|
G|-----9------9----5-----5-----2-----2-----4-------4-----9--------9-----5---5-------2-----2-----4---4-|
D|---10-----------7-----------3-----------5------------10--------------7-----------3-----------5-----5|
A|----------------------------------------------------------------------------------------------------|
E|-8-----------5-----------1-----------3-------------8--------------5-----------1-----------3---------|

e|-------7-----------5--5------7--7--------5--5----------3-1---------5-3---------8-----------3---|
B|------8-8-8-------5-5---------8--8--------5--5--------1---1-------3---3-------8-8-8-------3-3--|
G|-----7---7-------5---5---------7--7--------5--5------2-----2-----4-----4-----9---9-------4---4-|
D|----9-----------7-----------9-----------7-----------3-----------5----------10-----------5-----5|
A|-7-----------------------7---------------------------------------------------------------------|
E|-------------5-----------------------5-----------1-----------3-----------8-----------3---------|

Verse 1: G1*Riff 1
         C     Am            F                 G
 She was only 21 but so much older than sheís now 
          C          Am              F                G
 Now she passed the 24 I guess itís time to say good bye
             Em7            Am 
 Hereís the new hereís the real
             Em7              Am
 Hereís the life you like to live
                 F             G             C      G 
 Now hereís the new boy taking on the world tonight

Verse 2:  G2*Riff 1
          C                    Am 
 When we met she smelled like honey
          F                  G
 When we kissed she tasted tears
           C     Am              F               G
 Then for 14000 seconds we made love behind old fears
             Em7            Am 
 Hereís the new hereís the real
             Em7              Am
 Hereís the life you wish to live
                 F             G             C     
 Now hereís the new boy taking on the world tonight

Chorus:    G2*Riff 2
           Em7           Am          F                  G
 Take the words on your way I donít waste the things I say
          Em7             Am  
 When in doubt, fuck the world
        Em7                    Am
 Forget all the things youíve heard
                 F             D             G      E 
 Now hereís the new boy taking on the world tonight

Verse 3: G2*Riff 3
C        Am             F              G          
 Why so sad? Donít you like my way of life?
C                Am            F                G  
 I donít last forever neither do the things we love
          Em7           Am  
 You are wise, this is now
         Em7               Am  
 This is all the things I want
              F           G                 C   G 
 Everything around us is moving except the time

Verse 4:
         C     Am            F                 G
 She was only 24 but so much younger than the past
            C                 Am               F               G  
 Weíve laid all our troubles down and now itís us against the rest
             Em7            Am 
 Hereís the new hereís the real
             Em7              Am
 Hereís the life you like to live
                 F             G             C     
 Now hereís the new boy taking on the world tonight

Chorus:    G2*Riff 2
           Em7           Am          F                  G
 Take the words on your way I donít waste the things I say
          Em7             Am  
 When in doubt, fuck the world
        Em7                    Am
 Forget all the things youíve heard
                 F             D             G      E 
 Now hereís the new boy taking on the world tonight

Instrumental part:

C Am F G
C Am F G
Em7 Am Em7 Am
F G C

End with:
e|-11----11---------13----13----------8-|
B|---11----11--11-----13----13--------8-|
G|-----12----12--12-----14----14------9-|
D|------------------------------------10|
A|------------------------------------10|
E|------------------------------------8-|





Comments


Popular Mando Diao tabs & chords
Sheepdog 2 Bass Tabs
Gold 2 Chords
India Love Chords
Last Time Infected Me Chords
Mexican Hardcore 2 Chords
Train On Fire Chords
Welcome Home Luc Robitaille 1 Chords
Josephine Tabs
Ochrasy 2 Tabs
You Can't Steal My Love Tabs


Song lyrics



↑ Back to top | Tablatures and chords are parodies/interpretations of the original songs. You may use it for private study, scholarship, research or language learning purposes only
© 2014 AZChords.com Contact us | Privacy policy | DMCA | Add/correct tabs | Request tabs | Top 50 tabs