» » »

Mana, Cuando Los Angeles Lloran Tabs (ver.1)

Artists:  A B C D E F G H I J K L M N O P Q R S T U V W X Y Z # 

Cuando Los Angeles Lloran Tabs (ver.1)

Mana Tabs
 Rating:
3.6/5 (7 votes)
Cuando Los Angeles Lloran lessons Tabs too difficult? Try these video lessons and learn fast
                (Intro)
-------------------------------------------------------------------------------
                    CUANDO LOS ANGELES LLORAN - Manà
-------------------------------------------------------------------------------

Tuning: Regular (e)


e|---------------------------------------------------------------------------|
B|-9------9--7-----------10--------10--9--7----------------------------------|
G|-9----9------9--6------9------9------------9-8-----------------------------|
D|-9--9-------(7)----9---9--9---------------------(7)------------------------|
A|-7---------------------7---------------------------------------------------|
E|---------------------------------------------------------------------------|

e|---------------------------------------------------------------------------|
B|-9------9--7-----------10--------10----------------------------------------|
G|-9----9------9--6------9------9-------6--9--8p6-8--------------------------|
D|-9--9-------(7)----9---9--9------------------------------------------------|
A|-7---------------------7---------------------------------------------------|
E|---------------------------------------------------------------------------|

e|---------------------------------------------------------------------------|
B|-9----12-10-9-------------7---------7-------5------------------------------|
G|-9-------------11--9-----8-------8---------6-------------------------------|
D|-9----------------------9-----9-----------7--------------------------------|
A|-7---------------------9-----------------7---------------------------------|
E|---------------------------------------------------------------------------|

e|---------------------------------------------------------------------------|
B|-9--7----------------------------------7--9--10--9--7----------------------|
G|-------9--8--6-----6----6---9-------6------------------9--9---8p6-8--------|
D|----------------9------7---9----7------------------------------------(9)---|
A|----------------------7----------------------------------------------------|
E|---------------------------------------------------------------------------|

e|---------------------------------------------------------------------------|
B|-9----12-10-9-------------7---------7-------5------------------------------|
G|-9-------------11--9-----8-------8---------6-------------------------------|
D|-9----------------------9-----9-----------7--------------------------------|
A|-7---------------------9-----------------7---------------------------------|
E|---------------------------------------------------------------------------|

e|---------------------------------------------------------------------------|
B|-9--7----------------------------------7--9--10--9--7----------------------|
G|-------9--8--6-----6----6---9-------6------------------9--9---8p6-8--------|
D|----------------9------7---9----7------------------------------------------|
A|----------------------7----------------------------------------------------|
E|---------------------------------------------------------------------------|

e|---------------------------------------------------------------------------|
B|----------------9-10-12------9p7-----------5h4-----------------------------|
G|--------8-9-11------------9-------9--8----6--------------------------------|
D|--9-11--------------(14)-----------------6---------------------------------|
A|----------------------------------------4----------------------------------|
E|---------------------------------------------------------------------------|

e|----------0---0----0------0----0----0----0---------------------------------|
B|-----0---0---0----0------0----0----0----0----------------------------------|
G|-1------2---1----2----2-2----1----2----1-----------------------------------|
D|---------------------------------------------------------------------------|
A|---------------------------------------------------------------------------|
E|---------------------------------------------------------------------------|

e|--------------0---0----0------0----0----0----0-----------------------------|
B|---------0---0---0----0------0----0----0----0------------------------------|
G|-1---1------2---1----2----2-2----1----1------------------------------------|
D|-------------------------------------------4---(2)-------------------------|
A|---------------------------------------------------------------------------|
E|---------------------------------------------------------------------------|

| (tab) optional
| / slide up
| \ slide down
| h hammer-on
| p pull-off
| ~ vibrato
| + harmonic
| x Mute note
===============================================================================
            
Submit corrections

comments powered by Disqus
↑ Back to top | Mana Tabs for Cuando Los Angeles Lloran. Lyrics for acoustic guitar and electric guitar. Tablatures and chords are parodies/interpretations of the original songs. You may use it for private study, scholarship, research or language learning purposes only